Табулатура Ill Nino | When It Cust гитара табулатуры уроки тексты песен Ill Nino текст lyrics песня аккорды песни ноты нота электрогитара струна  
   А Б В Г Д Е Ж З И К Л М Н О П Р С Т У Ф Х Ч Ш Ы Э Ю Я       Разные песни
1-9 A B C D E F G H I J K L M N O P Q R S T U V W Y Z      Все исполнители

    



группа Ill Nino, Табулатура песни When It Cust

Группа: Ill Nino - другие аккорды (17),   о группе (1 статей),   диски (4),   фотографии (5)
Табулатура песни: When It Cust
Просмотров: 1071
Подобрал: DolZ (gogodols@globonet.ru)




    
D|--------------------------
A|--------------------------
F|--------------------------(x3)
C|-2-0--2-55555-2--0-4444---
G|-2-0--2-------2--0--------
C|-2-0--2-------2--0--------
P.M...          .
D|--------------------------
A|--------------------------
F|--------------------------
C|-0-0--0-44444-0--0-5555---
G|-0-0--0-------0--0--------
C|-0-0--0-------0--0--------
P.M...          .  
Chorus
D|---------------------
A|---------------------
F|---------------------
C|---------------------

Продолжаем грести бабос на ботах в Telegram.
Только в этот раз есть вариант автоматизировать это дело, привлекая рефералов. Вы можете заработать если »

G|--------------------- C|-0202-02-020--------- D|---------------- A|---------------- F|---------------- C|-7~---2~-------- G|-5~---0~-------- C|-5~---0~-------- Bridge D|--------------------|--------- A|--------------------|--------- F|--------------------|--------- C|-20202-33333333-----|-7-2----- G|-20202-33333333-----|-5-0----- C|-20202-33333333-----|-5-0-----








О сайтеАккордыХит-парадПоискУроки ФорумыИщу песню
ПрограммыСвежачок-сПодпискаСтатьи
Яндекс.Метрика