Табулатура Ill Nino | This Time For Real гитара табулатуры уроки тексты песен Ill Nino текст lyrics песня аккорды песни ноты нота электрогитара струна  
   А Б В Г Д Е Ж З И К Л М Н О П Р С Т У Ф Х Ч Ш Ы Э Ю Я       Разные песни
1-9 A B C D E F G H I J K L M N O P Q R S T U V W Y Z      Все исполнители

    



группа Ill Nino, Табулатура песни This Time For Real

Группа: Ill Nino - другие аккорды (17),   о группе (1 статей),   диски (4),   фотографии (5)
Табулатура песни: This Time For Real
Просмотров: 1097
Подобрал: DolZ (gogodols@globonet.ru)




    
|-------------------------------------------------------------------------
|---10---10---10---10---10------8----8----8----8--------------------------
|-------------------------------------------------------------------------
|-7----7----7----7----7--------5----5----5----5---------------------------
| ------------------------------------------------------------------------
|-------------------------------------------------------------------------
-After Intro-
Guitar 1
D|-----------------------------------
A|-----------------------------------
F|-----------------------------------
C|-7-7-7---10---3-3-3--3h5p3---------
G|-7-7-7---10---3-3-3--3h5p3---------
C|-7-7-7---10---3-3-3--3h5p3---------(x3) 
Then after the 3rd time play this:
D|---------------------------------------
A|---------------------------------------
F|---------------------------------------
C|-5~------------------------------------
G|-5~------------------------------------
C|-5~------------------------------------
Guitar 2
D|-19-19-19--------------20-20-20--------------20-20-20--------------
A|--------------17-17-17--------------17-17-17--------------17-17-17-
F|-------------------------------------------------------------------
C|-------------------------------------------------------------------
G|-------------------------------------------------------------------
C|-------------------------------------------------------------------(x3)
D|-20--19-------
A|--------------
F|----------19~-
C|--------------
G|--------------
C|--------------
 
-Verse-
Guitar 1
D|-----------------------------------
A|-----------------------------------
F|-----------------------------------
C|-7-7-7---10---3-3-3--3h5p3---------
G|-7-7-7---10---3-3-3--3h5p3---------
C|-7-7-7---10---3-3-3--3h5p3---------(x3) 
D|------------------------------------------
A|------------------------------------------
F|------------------------------------------
C|-5~-5h7-----------------------------------
G|-5~-5h7-----------------------------------
C|-5~-5h7-----------------------------------
D|-----------------------------------------
A|-----------------------------------------
F|-----------------------------------------
C|-5~-----8~-------------------------------
G|-5~-----8~-------------------------------
C|-5~-----8~-------------------------------
-Chorus-
Guitar 1
D|------------------
A|------------------
F|------------------
C|-0----3----5----3-
G|-0----3----5----3-
C|-0----3----5----3-(x2)
Guitar 2
D|-17~----------------------------------------------------------------
A|-15~------17----17------15----15------17----17-------15----15-------
F|-14~----------------------------------------------------------------
C|--------------------------------------------------------------------
G|--------------------------------------------------------------------
C|--------------------------------------------------------------------
D|------------------------------------------
A|-----17----17------15----15------17~------
F|---------------------------------14~------
C|------------------------------------------
G|------------------------------------------
C|------------------------------------------
Guitar 1
D|-----------------------------------
A|-----------------------------------
F|-----------------------------------
C|-7-7-7---10---3-3-3--3h5p3---------
G|-7-7-7---10---3-3-3--3h5p3---------
C|-7-7-7---10---3-3-3--3h5p3---------(x2)
Guitar 2
D|-19-19-19--------------20-20-20--------------20-20-20------------
A|------------17-17-17--------------17-17-17--------------17-17-17-
F|-----------------------------------------------------------------
C|-----------------------------------------------------------------
G|-----------------------------------------------------------------
C|-----------------------------------------------------------------(x2)
-Verse-
Guitar 1
D|-----------------------------------
A|-----------------------------------
F|-----------------------------------
C|-7-7-7---10---3-3-3--3h5p3---------
G|-7-7-7---10---3-3-3--3h5p3---------
C|-7-7-7---10---3-3-3--3h5p3---------(x3) 

Продолжаем грести бабос на ботах в Telegram.
Только в этот раз есть вариант автоматизировать это дело, привлекая рефералов. Вы можете заработать если »

D|------------------------------------------ A|------------------------------------------ F|------------------------------------------ C|-5~-5h7----------------------------------- G|-5~-5h7----------------------------------- C|-5~-5h7----------------------------------- D|----------------------------------------- A|----------------------------------------- F|----------------------------------------- C|-5~-----8~------------------------------- G|-5~-----8~------------------------------- C|-5~-----8~------------------------------- -Chorus- Guitar 1 D|------------------ A|------------------ F|------------------ C|-0----3----5----3- G|-0----3----5----3- C|-0----3----5----3-(x2) Guitar 2 D|-17~---------------------------------------------------------------- A|-15~------17----17------15----15------17----17-------15----15------- F|-14~---------------------------------------------------------------- C|-------------------------------------------------------------------- G|-------------------------------------------------------------------- C|-------------------------------------------------------------------- D|------------------------------------------ A|-----17----17------15----15------17~------ F|---------------------------------14~------ C|------------------------------------------ G|------------------------------------------ C|------------------------------------------ -Bridge Solo- D|------5h7-7h8p7p5---------5h7-7h8-8p7-7p5---------------- A|-5-5-----------------5-5--------------------------------- F|---------------------------------------------------------- C|---------------------------------------------------------- G|---------------------------------------------------------- C|----------------------------------------------------------(x2) D|-8-8-8-8-5-5--7h8p7----5--7h8p7----5*-8*--7h8p7- A|--------------------8------------8-------------- F|------------------------------------------------ C|------------------------------------------------ G|------------------------------------------------ C|------------------------------------------------ D|---5--7h8p7----5-8h10p8-7h8p7h8p7p5- A|-8-----------8---------------------- F|------------------------------------ C|------------------------------------ G|------------------------------------ C|------------------------------------ D|-------------------------------------------- A|-13-13-13-13-12-12-13--13-13-13-13-12-13-10- F|-14-14-14-14-12-12-14--14-14-14-14-12-14-10- C|-------------------------------------------- G|-------------------------------------------- C|-------------------------------------------- D|--------------------------------------------------------- A|---------------------------------------------13-15-17-17- F|---------------------------------------------14-16-17-17- C|----12h14p12------12--12h14p12----12--------------------- G|-15------------15--------------------15------------------ C|--------------------------------------------------------- -Chorus- Guitar 1 D|------------------ A|------------------ F|------------------ C|-0----3----5----3- G|-0----3----5----3- C|-0----3----5----3-(x3) Guitar 2 D|-17~----------------------------------------------------------- A|-15~------17----17------15----15------17----17-------15----15-- F|-14~----------------------------------------------------------- C|--------------------------------------------------------------- G|--------------------------------------------------------------- C|--------------------------------------------------------------- D|--------------------------------------------------------------------- A|17----17------15----15------17----17-------15----15------17----17---- F|--------------------------------------------------------------------- C|--------------------------------------------------------------------- G|--------------------------------------------------------------------- C|--------------------------------------------------------------------- D|--------------------------------------------- A|15----15------15----17--------15~------------ F|-----------------14----14(x6)-14~------------ C|--------------------------------------------- G|--------------------------------------------- C|---------------------------------------------








О сайтеАккордыХит-парадПоискУроки ФорумыИщу песню
ПрограммыСвежачок-сПодпискаСтатьи
Яндекс.Метрика