Табулатура Ill Nino | Rip Out Your Eyes гитара табулатуры уроки тексты песен Ill Nino текст lyrics песня аккорды песни ноты нота электрогитара струна  
   А Б В Г Д Е Ж З И К Л М Н О П Р С Т У Ф Х Ч Ш Ы Э Ю Я       Разные песни
1-9 A B C D E F G H I J K L M N O P Q R S T U V W Y Z      Все исполнители

    



группа Ill Nino, Табулатура песни Rip Out Your Eyes

Группа: Ill Nino - другие аккорды (17),   о группе (1 статей),   диски (4),   фотографии (5)
Табулатура песни: Rip Out Your Eyes
Просмотров: 1168
Подобрал: DolZ ( gogodols@globonet.ru)




    
Intro
-------------------------------------
------------------------------------
------------------------------------
------------------------------------
------------------------------------
--12-12-0-12-13-0--12-12-0-12-13-0--
---------------
---------------
---------------
--0-0-0-0-0-0--
--0-0-0-0-0-0--
--0-0-0-0-0-0--
  . . . . . .
Verse
-----------------------------------------------------------------
-----------------------------------------------------------------
-10-10-10-10-10-10-10-10-10-10-10-10-10-10-10-10-10-10-10-10-10--
--x--x--x--x--x--x--x--x--x--x--x--x--x--x--x--x--x--x--x--x--x--
--8--8--8--8--8--8--8--8--8--8--8--8--8--8--8--8--8--8--8--8--8--
-----------------------------------------------------------------
Chorus

Продолжаем грести бабос на ботах в Telegram.
Только в этот раз есть вариант автоматизировать это дело, привлекая рефералов. Вы можете заработать если »

------------------------------- ------------------------------- ----------------------------7-- --0-0-1--0-0-1--0-0-1--0-0--6-- --0-0-1--0-0-1--0-0-1--0-0--5-- --0-0-1--0-0-1--0-0-1--0-0----- ------------------------------- ------------------------------- ----------------------------6-- --0-0-1--0-0-1--0-0-1--0-0--5-- --0-0-1--0-0-1--0-0-1--0-0--4-- --0-0-1--0-0-1--0-0-1--0-0----- End -----|-----|------|------|------|------|------|------ -----|-----|------|------|------|------|------|------ --7--|--9--|--10--|--12--|--14--|--15--|--17--|--19-- --x--|--x--|---x--|---x--|---x--|---x--|---x--|---x-- --5--|--7--|---8--|--10--|--12--|--13--|--15--|--17-- -----|-----|------|------|------|------|------|------








О сайтеАккордыХит-парадПоискУроки ФорумыИщу песню
ПрограммыСвежачок-сПодпискаСтатьи
Яндекс.Метрика