Табулатура Ill Nino | No Murder гитара табулатуры уроки тексты песен Ill Nino текст lyrics песня аккорды песни ноты нота электрогитара струна  
   А Б В Г Д Е Ж З И К Л М Н О П Р С Т У Ф Х Ч Ш Ы Э Ю Я       Разные песни
1-9 A B C D E F G H I J K L M N O P Q R S T U V W Y Z      Все исполнители

    



группа Ill Nino, Табулатура песни No Murder

Группа: Ill Nino - другие аккорды (17),   о группе (1 статей),   диски (4),   фотографии (5)
Табулатура песни: No Murder
Просмотров: 1319
Подобрал: DolZ (gogodols@globonet.ru)




    

Intro
-------------------
-------------------
-------------------
------------------- x4
-------------------
--3-2-0-2-0-2-0-3--
-------------------
-------------------
-------------------
--3-2-0-2-0-2-0-3-- x8
--3-2-0-2-0-2-0-3--
--3-2-0-2-0-2-0-3--
-------------------
-------------------
-------------------
--3-2-0-2-0-2-0-3-- x8
--3-2-0-2-0-2-0-3--
--3-2-0-2-0-2-0-3--
      . . . . . .
Verse (clean)
------------------
------------------
------------------
--14-12-----------
--------12-15-14--
------------------
End of Verse
----------------------
----------------------
----------------------
--3-2--3-2--3-2--3-2--
--3-2--3-2--3-2--3-2--
--3-2--3-2--3-2--3-2--
  . .  . .  . .  . .
Pre Chorus
---------------
---------------
---------------

Продолжаем грести бабос на ботах в Telegram.
Только в этот раз есть вариант автоматизировать это дело, привлекая рефералов. Вы можете заработать если »

--3-2-0-2-0-2-- --3-2-0-2-0-2-- --3-2-0-2-0-2-- Chorus ----------------------------------------- ----------------------------------------- -------------------------------16-17----- --7-7-7-7-7-7--10-10-10-10--14-------14-- --7-7-7-7-7-7--10-10-10-10--------------- --7-7-7-7-7-7--10-10-10-10--------------- ------------------------------------- ------------------------------------- ---------------------------16-17----- --0-0-0-0-0-0--3-3-3-3--14-------14-- --0-0-0-0-0-0--3-3-3-3--------------- --0-0-0-0-0-0--3-3-3-3--------------- End of chorus --------------------------------------------------- --------------------------------------------------- --16-16-16-17-17-17-16-16-16-17-17-17-16-16-17-17-- --------------------------------------------------- --------------------------------------------------- --------------------------------------------------- Outro ------------------- ------------------- ------------------- --3-2-0-2-0-2-0-3-- x8 --3-2-0-2-0-2-0-3-- --3-2-0-2-0-2-0-3-- End with.. --------------- --------------- --------------- --3-2-0-2-0-2-- --3-2-0-2-0-2-- --3-2-0-2-0-2--








О сайтеАккордыХит-парадПоискУроки ФорумыИщу песню
ПрограммыСвежачок-сПодпискаСтатьи
Яндекс.Метрика