Табулатура Ill Nino | Predisposed гитара табулатуры уроки тексты песен Ill Nino текст lyrics песня аккорды песни ноты нота электрогитара струна  
   А Б В Г Д Е Ж З И К Л М Н О П Р С Т У Ф Х Ч Ш Ы Э Ю Я       Разные песни
1-9 A B C D E F G H I J K L M N O P Q R S T U V W Y Z      Все исполнители

    



группа Ill Nino, Табулатура песни Predisposed

Группа: Ill Nino - другие аккорды (17),   о группе (1 статей),   диски (4),   фотографии (5)
Табулатура песни: Predisposed
Просмотров: 803
Подобрал: DolZ (gogodols@globonet.ru)




    

Intro (behind samples)
-----
-----
-----
-----
--0--
--0--
Killer Riff #1
------------------------------------------------------
------------------------------------------------------
------------------------------------------------------
------------------------------------------------------
--0-0--12-12-12-12h13p12-10--12-12-12-13-13-10-10-10--
--0-0--12-12-12-12h13p12-10--12-12-12-13-13-10-10-10--
Verse
-------------------------------------------------------
-------------------------------------------------------
-------------------------------------------------------
-------------------------------------------------------
--0-0-0--0-0-0-0-0-0-0-0--0-0-0--0-0-------------------
--0-0-0--0-0-0-0-0-0-0-0--0-0-0--0-0--0h1-1-1-1h3-3-3--
  . .    . . . . . . . .  . .    . .
-------------------------------------------------------
-------------------------------------------------------
-------------------------------------------------------
-------------------------------------------------------
--0-0-0--0-0-0-0-0-0-0-0--0-0-0--0-0-------------------
--0-0-0--0-0-0-0-0-0-0-0--0-0-0--0-0--3p1-1-1-1h3-3-3--
  . .    . . . . . . . .  . .    . .
Chorus (Gtr 1)
-------------------------------------------------------------------------
-------------------------------------------------------------------------
-------------------------------------------------------------------------

Продолжаем грести бабос на ботах в Telegram.
Только в этот раз есть вариант автоматизировать это дело, привлекая рефералов. Вы можете заработать если »

--8-8-8-8-8-8-8-8-8-8-8-8--12-12-12-12--5-5-5-5-5-5-5-5-5-5-5-5-5-5-5-5-- --8-8-8-8-8-8-8-8-8-8-8-8--12-12-12-12--5-5-5-5-5-5-5-5-5-5-5-5-5-5-5-5-- --8-8-8-8-8-8-8-8-8-8-8-8--12-12-12-12--5-5-5-5-5-5-5-5-5-5-5-5-5-5-5-5-- Chorus (Gtr 2) --------------------------------------------------- --------------------------------------------------- --15-------15-------15-------15-------15-------15-- -----12-12----12-12----12-12----12-12----12-12----- --------------------------------------------------- --------------------------------------------------- --------------------------------------------------- --------------------------------------------------- --14-------14-------14-------14-------14-------14-- -----12-12----12-12----12-12----12-12----12-12----- --------------------------------------------------- --------------------------------------------------- End of Bridge ----------------------------------- ----------------------------------- ----------------------------------- --5-5-5-5-5-5-3-3-3-3-3-3-3-3-3-3-- --5-5-5-5-5-5-3-3-3-3-3-3-3-3-3-3-- --5-5-5-5-5-5-3-3-3-3-3-3-3-3-3-3-- . . . . . . . . . End On -------------- -------------- -------------- --12-12----5-- --12-12----5-- --12-12----5--








О сайтеАккордыХит-парадПоискУроки ФорумыИщу песню
ПрограммыСвежачок-сПодпискаСтатьи
Яндекс.Метрика