Табулатура Ill Nino | Liar гитара табулатуры уроки тексты песен Ill Nino текст lyrics песня аккорды песни ноты нота электрогитара струна  
   А Б В Г Д Е Ж З И К Л М Н О П Р С Т У Ф Х Ч Ш Ы Э Ю Я       Разные песни
1-9 A B C D E F G H I J K L M N O P Q R S T U V W Y Z      Все исполнители

    



группа Ill Nino, Табулатура песни Liar

Группа: Ill Nino - другие аккорды (17),   о группе (1 статей),   диски (4),   фотографии (5)
Табулатура песни: Liar
Просмотров: 999
Подобрал: DolZ (gogodols@globonet.ru)




    
intro: clean
------------------------------------------------------------------------------
------------------------------------------------------------------------------
--7-7-7-7-7-------------------------------------------------------------------
--7-7-7-7-7---7---7--7--7--7------8---8---8---8---8---------------------------
--5-5-5-5-5--5---5--5--5--5-----8---8---8---8---8-----------------------------
------------------------------------------------------------------------------
                                                                              
verse:
------------------------------------------------------------------------------
------------------------------------------------------------------------------
-7-----------7-----------7----------------------------------------------------
-7--0-0-0-0--7--0-0-0-0--7--0-0-0-0--8-8-8-8-8-8-8----------------------------
-5--0-0-0-0--5--0-0-0-0--5--0-0-0-0--8-8-8-8-8-8-8----------------------------
----0-0-0-0-----0-0-0-0-----0-0-0-0--8-8-8-8-8-8-8----------------------------
                                                                              
chorus:
------------------------------------------------------------------------------
------------------------------------------------------------------------------
------------------------------------------------------------------------------
-7-7-7-7-7--0--8-8-8-8-8--0--7-7-7-7-7--0--8-8-8-8-8-8-8-8--------------------
-7-7-7-7-7--0--8-8-8-8-8--0--7-7-7-7-7--0--8-8-8-8-8-8-8-8--------------------

Продолжаем грести бабос на ботах в Telegram.
Только в этот раз есть вариант автоматизировать это дело, привлекая рефералов. Вы можете заработать если »

-7-7-7-7-7--0--8-8-8-8-8--0--7-7-7-7-7--0--8-8-8-8-8-8-8-8-------------------- bridge: ------------------------------------------------------------------------------ ------------------------------------------------------------------------------ ------------------------------------------------------------------------------ ------------------------------------------------------------------------------ ------------------------------------------------------------------------------ -00-0-0-0-00-0-0-00-0-0-0-00-0-0-00-0-0-0-00---------------------------------- outro: ------------------------------------------------------------------------------ ------------------------------------------------------------------------------ ------------------------------------------------------------------------------ -0-0-0-0-0-0------------------------------------------------------------------ -0-0-0-0-0-0------------------------------------------------------------------ -0-0-0-0-0-0------------------------------------------------------------------








О сайтеАккордыХит-парадПоискУроки ФорумыИщу песню
ПрограммыСвежачок-сПодпискаСтатьи
Яндекс.Метрика