Табулатура Ill Nino | What Comes Around гитара табулатуры уроки тексты песен Ill Nino текст lyrics песня аккорды песни ноты нота электрогитара струна  
   А Б В Г Д Е Ж З И К Л М Н О П Р С Т У Ф Х Ч Ш Ы Э Ю Я       Разные песни
1-9 A B C D E F G H I J K L M N O P Q R S T U V W Y Z      Все исполнители

    



группа Ill Nino, Табулатура песни What Comes Around

Группа: Ill Nino - другие аккорды (17),   о группе (1 статей),   диски (4),   фотографии (5)
Табулатура песни: What Comes Around
Просмотров: 709
Подобрал: DolZ (gogodols@globonet.ru)




    
Intro (Guitar enters between 0:08 and 0:09)
|------------------------------------------------|
|------------------------------------------------|
|-------------------------------5-5-5-5-5-5-5-5--|
|--1p0-0-0--3p1-1-1p0--1p0-0-0--5-5-5-5-5-5-5-5--|
|--1p0-0-0--3p1-1-1p0--1p0-0-0--3-3-3-3-3-3-3-3--|
|--1p0-0-0--3p1-1-1p0--1p0-0-0-------------------|
Verse (w/ delay)
|--------------------------13-13-13-12-12-12-15-15--|
|--15-15-15-15-15-15-15-15--------------------------|
|---------------------------------------------------|
|---------------------------------------------------|
|---------------------------------------------------|
|---------------------------------------------------|
Pre-Chorus
|---------------------------------------------------
|---------------------------------------------------
|---------------------------------------------------
|--12-12-12-12-12-12-12-12-12-12-12-12-12-12-12-12--
|--12-12-12-12-12-12-12-12-12-12-12-12-12-12-12-12--
|--12-12-12-12-12-12-12-12-12-12-12-12-12-12-12-12--
    .  .  .  .  .  .  .  .  .  .  .  .  .  .  .  .
-----------------------------------------|
-----------------------------------------|
-----------------------------------------|
--12-12-8-8-8-8-8-8-10-10-10-10-3-3-3-3--|
--12-12-8-8-8-8-8-8-10-10-10-10-3-3-3-3--|
--12-12-8-8-8-8-8-8-10-10-10-10-3-3-3-3--|
   .  . . . . . . .  .  .  .  . . . . .
Pre Chorus/Last Time
|-------------------------------------------------------|
|-------------------------------------------------------|
|-------------------------------------------------------|
|--12-12-12-12-12-12-12-12-12-12-12-12-12-12-12-12--10--|
|--12-12-12-12-12-12-12-12-12-12-12-12-12-12-12-12---8--|
|--12-12-12-12-12-12-12-12-12-12-12-12-12-12-12-12---8--|
    .  .  .  .  .  .  .  .  .  .  .  .  .  .  .  .
Chorus (Gtr. 1/Distorted)
|--------------------------------------
|--------------------------------------
|--------------------------------------
|--5-5-5-5--5-5-5-5--5-5-5-5--5-5-5-5--
|--5-5-5-5--5-5-5-5--5-5-5-5--5-5-5-5--

Продолжаем грести бабос на ботах в Telegram.
Только в этот раз есть вариант автоматизировать это дело, привлекая рефералов. Вы можете заработать если »

|--5-5-5-5--5-5-5-5--5-5-5-5--5-5-5-5-- ------------------------------------------------------| ------------------------------------------------------| ------------------------------------------------------| --10-10-10-10--10-10-10-10--10-10-10-10--10-10-10-10--| ---8--8--8--8---8--8--8--8---8--8--8--8---8--8--8--8--| ---8--8--8--8---8--8--8--8---8--8--8--8---8--8--8--8--| Chorus (Gtr. 2/Clean) |------------------------------------------------| |--------10---------------------10---------------| |------7--------10-10-10------7--------10-10-10--| |--(0)----------10-10-10--(0)----------10-10-10--| |----------------8--8--8----------------8--8--8--| |----------------8--8--8----------------8--8--8--| Post Chorus: This is the same as the intro riff. Bridge (Gtr. 1) |---------------------------------------- |-------6------8-----6------8------------ |-------7------7-----7------7------------ |-----7------7-----7------7-------------- |--5------5-----5------5----------------- |---------------------------------------- --------------------5------6------------------5--| ------6------8------6------6------6-----8-----6--| ------7------7--------------------7-----7--------| ----7------7------7------7------7-----7-----7----| --5------5------5------5------5-----5-----5------| -------------------------------------------------| Bridge (Gtr. 2) |-------------| |--6-6-6-6-6--| |--7-7-7-7-7--| |--7-7-7-7-7--| |--5-5-5-5-5--| |-------------| Outro: |------------------------| |------------------------| |------------------------| |--1p0-0-0-0--3p1-1-0-0--| |--1p0-0-0-0--3p1-1-0-0--| |--1p0-0-0-0--3p1-1-0-0--|








О сайтеАккордыХит-парадПоискУроки ФорумыИщу песню
ПрограммыСвежачок-сПодпискаСтатьи
Яндекс.Метрика