Табулатура Ill Nino | Nothing`s Clear гитара табулатуры уроки тексты песен Ill Nino текст lyrics песня аккорды песни ноты нота электрогитара струна  
   А Б В Г Д Е Ж З И К Л М Н О П Р С Т У Ф Х Ч Ш Ы Э Ю Я       Разные песни
1-9 A B C D E F G H I J K L M N O P Q R S T U V W Y Z      Все исполнители

    



группа Ill Nino, Табулатура песни Nothing`s Clear

Группа: Ill Nino - другие аккорды (17),   о группе (1 статей),   диски (4),   фотографии (5)
Табулатура песни: Nothing`s Clear
Просмотров: 1354
Подобрал: DolZ (gogodols@globonet.ru)




    
Intro (played in verse aswell)
------------------------------
------------------------------
------------------------------
--6-0-6-0-6-5--0-6-0-6-0-6-5--
--6-0-6-0-6-5--0-6-0-6-0-6-5--
--6-0-6-0-6-5--0-6-0-6-0-6-5--
Verse w/ wah
-----------------------------------
-----------------------------------
--7-7-7--8-8--7-7-7--8-8--7-7-8-8--
--x-x-x--x-x--x-x-x--x-x--x-x-x-x--
--5-5-5--6-6--5-5-5--6-6--5-5-6-6--
-----------------------------------
Chorus
--------------------------------------------------
--------------------------------------------------
--------------------------------------------------
--7-7-7-7-7-7--3-3-3-3-3--8-8-8-8-8-8--0-0-0-0-0--
--7-7-7-7-7-7--3-3-3-3-3--8-8-8-8-8-8--0-0-0-0-0--
--7-7-7-7-7-7--3-3-3-3-3--8-8-8-8-8-8--0-0-0-0-0--
Solo
-------------------------------------------
-------------------------------------------
--10p9-9-9-9-9---------10-12-10-9-10-9-9---
-----------------12-14---------------------
-------------------------------------------
-------------------------------------------
-------------------------------------------
-------------------------------------------

Продолжаем грести бабос на ботах в Telegram.
Только в этот раз есть вариант автоматизировать это дело, привлекая рефералов. Вы можете заработать если »

--10p9-9-9----9-9-------10-12-14-12-10-9-9- -----------12-----12-14-------------------- ------------------------------------------- ------------------------------------------- ------------------------------------------- ------------------------------------------- --10p9-9-9----9-9--10p9----9-10-12-10-9-9-- -----------12-----------12----------------- ------------------------------------------- ------------------------------------------- There are 4 parts to this solo. I have not yet Tabbed the last part but I will work on it and hopefully be able to get it up very soon! After Solo ------------------------------------------------------------------ ------------------------------------------------------------------ --9-9-9-9-9-9-9-9-9-9-9-9-10-10-10-10-10-10--7-7-7-7-10-10-10-10-- --x-x-x-x-x-x-x-x-x-x-x-x--x--x--x--x--x--x--x-x-x-x--x--x--x--x-- --7-7-7-7-7-7-7-7-7-7-7-7--8--8--8--8--8--8--5-5-5-5--8--8--8--8-- ------------------------------------------------------------------ -------------------------------------------------------------------- -------------------------------------------------------------------- --9-9-9-9-9-9-9-9-9-9-9-9--5-5-5-5-5-5-5-5-10-10-10-10-10-10-10-10-- --x-x-x-x-x-x-x-x-x-x-x-x--x-x-x-x-x-x-x-x--x--x--x--x--x--x--x--x-- --7-7-7-7-7-7-7-7-7-7-7-7--3-3-3-3-3-3-3-3--8--8--8--8--8--8--8--8-- --------------------------------------------------------------------








О сайтеАккордыХит-парадПоискУроки ФорумыИщу песню
ПрограммыСвежачок-сПодпискаСтатьи
Яндекс.Метрика