Табулатура Red Hot Chili Peppers | Fortune Faded гитара табулатуры уроки тексты песен Red Hot Chili Peppers текст lyrics песня аккорды песни ноты нота электрогитара струна  
   А Б В Г Д Е Ж З И К Л М Н О П Р С Т У Ф Х Ч Ш Ы Э Ю Я       Разные песни
1-9 A B C D E F G H I J K L M N O P Q R S T U V W Y Z      Все исполнители in english

    



группа Red Hot Chili Peppers, Табулатура песни Fortune Faded

Продолжаем грести бабос на ботах в Telegram.
Только в этот раз есть вариант автоматизировать это дело, привлекая рефералов. Вы можете заработать если »

Группа: Red Hot Chili Peppers - другие аккорды (395),   о группе (3 статей),   диски (15),   фотографии (113)
Табулатура песни: Fortune Faded
Просмотров: 2785
Подобрал: red_elvis (red_elvis@rambler.ru)




    
E||----------------------------------|----------------------------------|
B||--2-2-2-2-2-2-2-2-2-2-2-2-2-2-2-2-|--2-2-2-2-2-2-2-2-2-2-2-2-2-2-2-2-|
G||--3-3-3-3-3-3-3-3-3-3-3-3-3-3-3-3-|--3-3-3-3-3-3-3-3-3-3-3-3-3-3-3-3-|
D||--4-4-4-4-4-4-4-4-4-4-4-4-4-4-4-4-|--4-4-4-4-4-4-4-4-4-4-4-4-4-4-4-4-|
A||--4-4-4-4-4-4-4-4-4-4-4-4-4-4-4-4-|--4-4-4-4-4-4-4-4-4-4-4-4-4-4-4-4-|
E||--2-2-2-2-2-2-2-2-2-2-2-2-2-2-2-2-|--2-2-2-2-2-2-2-2-2-2-2-2-2-2-2-2-|
                                                                
                                                  
------------------------|------------------------|
------------------------|------------------------|
---------11-------------|-------11---------------|
--9------------11----9--|--9--------11----9------|
------------------------|------------------------|
------------------------|------------------------|
                                                                          
------------------------------|--9------9------9----|------------------------|
--10-----10-----10------------|---------------------|------------------------|
------11-----11-----11--------|---------------------|---------11-------------|
------------------------------|---------------------|--9------------11----9--|
------------------------------|---------------------|------------------------|
------------------------------|---------------------|------------------------|
                                                                              
------------------------|----------------------|------------------------|----|
------------------------|--10------------------|--10--------------------|----|
-------11---------------|----------11----------|----------11------11/---|----|
--9--------11----9------|----------------------|------------------------|----|
------------------------|----------------------|------------------------|----|
------------------------|----------------------|------------------------|----|
They say in chess, you gotta kill the queen 
And then you mate it 
----|-----------------------|--9--9--9--9----9--9--9--9----9/----|----|----|
----|--x--x-x--x-7----------|--10-10-10-10---10-10-10-10---10/---|----|----|
----|--7--x-7--x-7----------|--9--9--9--9----9--9--9--9----9/----|----|----|
----|--7--x-7--x-7----------|------------------------------------|----|----|
----|-----------------------|------------------------------------|----|----|
----|-----------------------|------------------------------------|----|----|
Oh I, do you? 
A funny thing, the king who gets himself assassinated 
----|-----------------------|--9--9--9--9----9--9--9--9----9/----|----|----|
----|--x--x-x--x-7----------|--10-10-10-10---10-10-10-10---10/---|----|----|
----|--7--x-7--x-7----------|--9--9--9--9----9--9--9--9----9/----|----|----|
----|--7--x-7--x-7----------|------------------------------------|----|----|
----|-----------------------|------------------------------------|----|----|
----|-----------------------|------------------------------------|----|----|
Hey now, every time 
                                                          
------------------------|------------------------|----------------------|
------------------------|------------------------|--10------------------|
---------11-------------|-------11---------------|----------11----------|
--9------------11----9--|--9--------11----9------|----------------------|
------------------------|------------------------|----------------------|
------------------------|------------------------|----------------------|
                                                           

Продолжаем грести бабос на ботах в Telegram.
Только в этот раз есть вариант автоматизировать это дело, привлекая рефералов. Вы можете заработать если »

------------------------| --10--------------------| ----------11------11/---| ------------------------| ------------------------| ------------------------| i lose Altitude You took a town by storm The mess you made was nominated Oh I, do you? Now put away your welcome, soon you\'ll find you\'ve overstayed it Hey now, every time I lose Altitude CHORUS: ------------------------------|----------------------------| |--5----5--5-5-x-x-5--x-x-5--| |--6----6--6-6-x-x-6--x-x-6--| |--7----7--7-7-x-x-7--x-x-7--| |----------------------------| |----------------------------| So divine, hell of an elevator --------------------------| --3----3--3-3--3--3-3--3--| --4----4--4-4--4--4-4--4--| --5----5--5-5--5--5-5--5--| --------------------------| --------------------------| All the while my fortune faded ---------------------------| ---------------------------| ----7--7--x-7--7-x-x-7--7--| ----9--9--x-9--9-x-x-9--9--| ----9--9--x-9--9-x-x-9--9--| ---------------------------| Nevermind the consequences of the crime this time My fortune faded The medicated state of mind you find is overrated Oh I, do you? You saw it all come down and now it\'s time to imitate it Hey now, every time I lose altitude CHORUS (Instrumental Bridge) Come on God, do I seem bulletproof? Ooooooooooh CHORUS x2 все пожелания пишите на мое мыло red_elvis@rambler.ru

искать в аптеке
список лекарств






О сайтеАккордыХит-парадПоискУроки ФорумыИщу песню
ПрограммыСвежачок-сПодпискаСтатьи
Яндекс.Метрика