Аккорды Evanescence | Tourniquet гитара табулатуры уроки тексты песен Evanescence текст lyrics песня аккорды песни ноты нота электрогитара струна  
   А Б В Г Д Е Ж З И К Л М Н О П Р С Т У Ф Х Ч Ш Ы Э Ю Я       Разные песни
1-9 A B C D E F G H I J K L M N O P Q R S T U V W Y Z      Все исполнители in english

    



группа Evanescence, Аккорды песни Tourniquet

Группа: Evanescence - другие аккорды (22),   о группе (11 статей),   диски (8),   фотографии (15)
Аккорды песни: Tourniquet
Просмотров: 2979
Подобрал: TRAv@ (anna-avm@mtu-net.ru)




    
MY TOURNIQUET
--------------------------------------------------------
Tuning
   standard E tuning, 1/2 step up
e ---
B ---
G ---
D ---
A ---
E ---
---------------------------------------------------------
Chords used
  E5  G/C5  A/D5
e -------------------
B -------------------
G -------------------
D --2---2----4-------
A --2---3----5-------
E --0---3----5-------

----------------------------------------------------------
Intro/Chorus
- Rhythm Guitar:
   E5
e --------------------------------------------
B --------------------------------------------
G ------0----------------------0--------------
D --22-2--22--2-4--0-------22-2---22--2-4--0--
A --22----22---------------22-----22----------
E --00----00---------------00-----00----------
    G/C5                  A/D5
e --------------------------------------------------
B --------------------------------------------------
G ------0-------------------------------------------
D --22-2---22--2-4--0------4--7--5-4--7-5--4h5p4----
A --33-----33--------------5---------------------5--
E --33-----33--------------5------------------------
- Another guitar plays this after the rhythm goes through once.
e --------5~--|--------------
B --8~-7~-----|--8~--7-------
G ------------|--------7-----
D ------------|----------7~--
A ------------|--------------
E ------------|--------------
E5
 My god, my tourniquet
          G/C5    A/D5
Return to me   salvation
---------------------------------------------------------
Verse
e ---------------------------
B ---------------------------
G ---------------------------
D ----------[   ]------------
A ---------------------------
E ---------------------------
Rest through "I tryed to kill the pain...."
   E5                   G/C5        A/D5
e -------------------------------------------
B -------------------------------------------
G --------0--------------------0-----------5-
D ------2--------2---------2-------------4---
A ----2--------2---2---------3---------5-----
E --0--------0-----------3-----------5-------
Played somewhat clean, lightly
                  E5                            G/C5                 A/D5
"So much more...." I may die and im pouring out crimes of regret and betrayal
   E5      E5       G/C5    A/D5

Продолжаем грести бабос на ботах в Telegram.
Только в этот раз есть вариант автоматизировать это дело, привлекая рефералов. Вы можете заработать если »

e ----------------------------------------0-- B ------------------------------------4------ G --------------------------------------1---- D --22x2--2-22x2--2-22x2--2-44x4--4---------- A --22x2--2-22x2--2-33x3--3-55x5--5---------- E --00x0--0-00x0--0-33x3--3-55x5--5---------- E5 E5 G/C5 A/D5 I'm dying, praying, bleeding, and screaming E5 E5 G/C5 A/D5 Am I too lost to be saved? Am I too lost? ------------------------------------- Bridge E5 e ------------------------------------ B ------------------5^---------------- G ------------------------------------ D ------------------------------------ A --22-222-22-2-222------------------- E --00-000-00-0-000------------------- Tourniquet (Gray/Hodges/Lee/Moody) I tried to kill the pain, But only brought more. (So much more) I'm dying, And I'm pouring, crimson regret, and betrayal. I'm dying, Praying, Bleeding, Screaming. Am I too lost to be saved? Am I too lost? My God! My Tourniquet, Return to me salvation. My God! My Tourniquet, Return to me salvation. Do you remember me? Lost for so long. Will you be on the other side? Will you forgive me? I'm dying, Praying, Bleeding, Screaming. Am I too lost to be saved? Am I too lost? My God! My Tourniquet, Return to me salvation. My God! My Tourniquet, Return to me salvation. (Return to me salvation) (I want to DIE!) My God! My Tourniquet, Return to me salvation. My God! My Tourniquet, Return to me salvation. My wounds cry for the grave. My soul cries, for deliverance. Will I be denied? Christ! Tourniquet! My suicide.








О сайтеАккордыХит-парадПоискУроки ФорумыИщу песню
ПрограммыСвежачок-сПодпискаСтатьи
Яндекс.Метрика