Табулатура Evanescence | Bring Me To Life гитара табулатуры уроки тексты песен Evanescence текст lyrics песня аккорды песни ноты нота электрогитара струна  
   А Б В Г Д Е Ж З И К Л М Н О П Р С Т У Ф Х Ч Ш Ы Э Ю Я       Разные песни
1-9 A B C D E F G H I J K L M N O P Q R S T U V W Y Z      Все исполнители in english

    



группа Evanescence, Табулатура песни Bring Me To Life

Группа: Evanescence - другие аккорды (22),   о группе (11 статей),   диски (8),   фотографии (15)
Табулатура песни: Bring Me To Life
Просмотров: 5321
Подобрал: Echo (indiespace@akkords.ru)




    
Имя:Echo
E-mail:indiespace@akkords.ru
подбор: да
Band:Evanescence
Song:Bring Me To Life
Авторская:
Гитара вступает после 12 тактов пианино
E||------|------|------|------|------|------|------|------|------|------|------|
B||------|------|------|------|------|------|------|------|------|------|------|
G||------|------|------|------|------|------|------|------|------|------|------|
D||------|------|------|------|------|------|------|------|------|------|------|
A||------|------|------|------|------|------|------|------|------|------|------|
E||------|------|------|------|------|------|------|------|------|------|------|

------|-------------------|--------------------------|
------|-------------------|--------------------------|
------|-------------------|--------------------------|
------|--2----------------|--2-2--2-2--2-2--2-2------|
------|--2----------------|--2-2--2-2--2-2--2-2------|
------|--0----------------|--0-0--0-0--0-0--0-0------|

----------------------------|--------------------------|
----------------------------|--------------------------|
----------------------------|--5-5--5-5--5-5--5-5------|
---2-2--2-2--2-2--2-2--2-2--|--5-5--5-5--5-5--5-5------|
---2-2--2-2--2-2--2-2--2-2--|--3-3--3-3--3-3--3-3------|
---0-0--0-0--0-0--0-0--0-0--|--3-3--3-3--3-3--3-3------|

----------------------------|--------------------------|
----------------------------|--------------------------|
---5-5--5-5--5-5--5-5--5-5--|--------------------------|
---5-5--5-5--5-5--5-5--5-5--|--2-2--2-2--2-2--2-2------|
---3-3--3-3--3-3--3-3--3-3--|--2-2--2-2--2-2--2-2------|
---3-3--3-3--3-3--3-3--3-3--|--0-0--0-0--0-0--0-0------|

----------------------------|--------------------------|
----------------------------|--------------------------|
----------------------------|--5-5--5-5--5-5--5-5------|
---2-2--2-2--2-2--2-2--2-2--|--5-5--5-5--5-5--5-5------|
---2-2--2-2--2-2--2-2--2-2--|--3-3--3-3--3-3--3-3------|
---0-0--0-0--0-0--0-0--0-0--|--3-3--3-3--3-3--3-3------|

----------------------------|----------||------------------------|
----------------------------|----------||------------------------|
---5-5--5-5--5-5--5-5--5-5--|----------||*-----------------------|
---5-5--5-5--5-5--5-5--5-5--|----------||*--2----2---2---2--2----|
---3-3--3-3--3-3--3-3--3-3--|----------||---2----2---2---2--2----|
---3-3--3-3--3-3--3-3--3-3--|----------||---0----0---0---0--0----|

-----------------------|-----------------------|-----------------------||
-----------------------|-----------------------|-----------------------||
-----------------------|--7----7---7---7--7----|----------------------*||
--5----5---5---5--5----|--7----7---7---7--7----|--2----2----5----7----*||
--5----5---5---5--5----|--5----5---5---5--5----|--2----2----3----7-----||
--3----3---3---3--3----|-----------------------|--0----0----0----0-----||

-----------------------------|------------------------------|
-----------------------------|------------------------------|
----------------------x-x-4~-|------------------------------|
--2-2--2-2--2-2--2-2--x-x----|--2-2--2-2--2-2--2-2--2-2-2-2-|
--2-2--2-2--2-2--2-2--x-x----|--2-2--2-2--2-2--2-2--2-2-2-2-|
--0-0--0-0--0-0--0-0--x-x----|--0-0--0-0--0-0--0-0--0-0-0-0-|

----------------------------|------------------------------|
----------------------------|------------------------------|
----------------------------|--5-5--5-5--5-5--5-5--5-5-5-5-|
---2-2--2-2--2-2--2--2-2-5--|--5-5--5-5--5-5--5-5--5-5-5-5-|
---2-2--2-2--2-2--2--2-2----|--3-3--3-3--3-3--3-3--3-3-3-3-|
---0-0--0-0--0-0--0--0-0----|--3-3--3-3--3-3--3-3--3-3-3-3-|

-----------------------------|------------------------------|
-----------------------------|------------------------------|
---5-5--5-5--5-5--5--5-5-5-5-|------------------------------|
---5-5--5-5--5-5--5--5-5-5-5-|--2-2--2-2--2-2--2-2--2-2-2-2-|
---3-3--3-3--3-3--3--3-3-3-3-|--2-2--2-2--2-2--2-2--2-2-2-2-|
---3-3--3-3--3-3--3--3-3-3-3-|--0-0--0-0--0-0--0-0--0-0-0-0-|

-----------------------------|------------------------------|
-----------------------------|------------------------------|
-----------------------------|--5-5--5-5--5-5--5-5--5-5-5-5-|
---2-2--2-2--2-2--2--2-2-2-2-|--5-5--5-5--5-5--5-5--5-5-5-5-|
---2-2--2-2--2-2--2--2-2-2-2-|--3-3--3-3--3-3--3-3--3-3-3-3-|
---0-0--0-0--0-0--0--0-0-0-0-|--3-3--3-3--3-3--3-3--3-3-3-3-|

-----------------------------|---||------------------------|
-----------------------------|---||------------------------|
---5-5--5-5--5-5--5--5-5-5-5-|---||*-----------------------|
---5-5--5-5--5-5--5--5-5-5-5-|---||*--2----2---2---2--2----|
---3-3--3-3--3-3--3--3-3-3-3-|---||---2----2---2---2--2----|
---3-3--3-3--3-3--3--3-3-3-3-|---||---0----0---0---0--0----|

-----------------------|-----------------------|-----------------------||
-----------------------|-----------------------|-----------------------||
-----------------------|--7----7---7---7--7----|----------------------*||
--5----5---5---5--5----|--7----7---7---7--7----|--2----2----5----7----*||
--5----5---5---5--5----|--5----5---5---5--5----|--2----2----3----7-----||
--3----3---3---3--3----|-----------------------|--0----0----0----5-----||

----------------------||--------------------|-------------------|
----------------------||--------------------|-------------------|

Продолжаем грести бабос на ботах в Telegram.
Только в этот раз есть вариант автоматизировать это дело, привлекая рефералов. Вы можете заработать если »

----------------------||*--5----------------|--7----------------| --2----2----5----9----||*--5----------------|--7----------------| --2----2----3----9----||---3----------------|--5----------------| --0----0----0----7----||--------------------|-------------------| ------------------------------|------------------------------|| ------------------------------|------------------------------|| ------------------------------|-----------------------------*|| --2-2--2-2--2-2--2-2--2-2-2-2-|---2-2--2-2--2-2--2--2-2-2-2-*|| --2-2--2-2--2-2--2-2--2-2-2-2-|---2-2--2-2--2-2--2--2-2-2-2--|| --0-0--0-0--0-0--0-0--0-0-0-0-|---0-0--0-0--0-0--0--0-0-0-0--|| ----------------------||--------------------|--------------------| ----------------------||--------------------|--------------------| ----------------------||*--2----------------|--------------------| ----------------------||*--2----------------|--5--------2--------| -----------------2----||---0----------------|--5--------2--------| --0----2----3---------||--------------------|--3--------0--------| -------------------|-----------------------||-------------------| -------------------|-----------------------||-------------------| -------------------|----------------------*||-------------------| --4----------------|----------------------*||--4----------------| --4----------------|-----------------2-----||--4----------------| --2----------------|--0----2----3----------||--2----------------| ------------------||-------------------------------| ------------------||-------------------------------| ------------------||*------------------------------| ------------------||*--2-2--2-2--2-2--2-2--2-2-2-2-| ------------------||---2-2--2-2--2-2--2-2--2-2-2-2-| ------------------||---0-0--0-0--0-0--0-0--0-0-0-0-| -----------------------------|------------------------------| -----------------------------|------------------------------| -----------------------------|------------------------------| ---2-2--2-2--2-2--2--2-2-2-2-|--2-2--2-2--2-2--2-2--2-2-2-2-| ---2-2--2-2--2-2--2--2-2-2-2-|--2-2--2-2--2-2--2-2--2-2-2-2-| ---0-0--0-0--0-0--0--0-0-0-0-|--0-0--0-0--0-0--0-0--0-0-0-0-| ------------------------------||------------------------------| ------------------------------||------------------------------| -----------------------------*||--5-5--5-5--5-5--5-5--5-5-5-5-| ---2-2--2-2--2-2--2--2-2-2-2-*||--5-5--5-5--5-5--5-5--5-5-5-5-| ---2-2--2-2--2-2--2--2-2-2-2--||--3-3--3-3--3-3--3-3--3-3-3-3-| ---0-0--0-0--0-0--0--0-0-0-0--||------------------------------| -----------------------------||------------------------|-----------------------| -----------------------------||------------------------|-----------------------| ---7-7--7-7--7-7--7--7-7-7-7-||*-----------------------|-----------------------| ---7-7--7-7--7-7--7--7-7-7-7-||*--2----2---2---2--2----|--5----5---5---5--5----| ---5-5--5-5--5-5--5--5-5-5-5-||---2----2---2---2--2----|--5----5---5---5--5----| -----------------------------||---0----0---0---0--0----|--3----3---3---3--3----| -----------------------|--------------------||----------------------| -----------------------|--------------------||----------------------| --7----7---7---7--7----|--------------4----*||----------------------| --7----7---7---7--7----|--------------2----*||--2----2----5----7----| --5----5---5---5--5----|--------------2-----||--2----2----3----7----| -----------------------|--------------0-----||--0----0----0----5----| -------------------|-------------------|------------------------------| -------------------|-------------------|------------------------------| --5----------------|--7----------------|------------------------------| --5----------------|--7----------------|--2-2--2-2--2-2--2-2--2-2-2-2-| --3----------------|--5----------------|--2-2--2-2--2-2--2-2--2-2-2-2-| -------------------|-------------------|--0-0--0-0--0-0--0-0--0-0-0-0-| ----------------------|-------------------|-------------------| ----------------------|-------------------|-------------------| ----------------------|--5----------------|--7----------------| ----------------------|--5----------------|--7----------------| ----------------------|--3----------------|--5----------------| --0----2----3----5----|-------------------|-------------------| -------------------|------------------|------------------|------------------| -------------------|------------------|------------------|------------------| -------------------|------------------|------------------|------------------| --2----------------|------------------|------------------|------------------| --2----------------|------------------|------------------|------------------| --0----------------|------------------|------------------|------------------| ------------------|------------------|------------------|------------------| ------------------|------------------|------------------|------------------| ------------------|------------------|------------------|------------------| ------------------|------------------|------------------|------------------| ------------------|------------------|------------------|------------------| ------------------|------------------|------------------|------------------| ------------------|| ------------------|| ------------------|| ------------------|| ------------------|| ------------------||








О сайтеАккордыХит-парадПоискУроки ФорумыИщу песню
ПрограммыСвежачок-сПодпискаСтатьи
Яндекс.Метрика