Басовая табулатура Metallica | Crash Course In Brain Surgery гитара табулатуры уроки тексты песен Metallica текст lyrics песня аккорды песни ноты нота электрогитара струна  
   А Б В Г Д Е Ж З И К Л М Н О П Р С Т У Ф Х Ч Ш Ы Э Ю Я       Разные песни
1-9 A B C D E F G H I J K L M N O P Q R S T U V W Y Z      Все исполнители in english

    



группа Metallica, Басовая табулатура песни Crash Course In Brain Surgery

Продолжаем грести бабос на ботах в Telegram.
Только в этот раз есть вариант автоматизировать это дело, привлекая рефералов. Вы можете заработать если »

Группа: Metallica - другие аккорды (225),   о группе (32 статей),   диски (11),   фотографии (49)
Басовая табулатура песни: Crash Course In Brain Surgery
Просмотров: 1398
Прислал: Forever (forever@akkords.ru)




    
Crash Course in Brain Surgery
written by Budgie
as performed on Garage Days Revisited
tab by Travis Higgins

dropped D (D A D G)
Intro play 4 times
||---------------------5--6--|--7---------------------||------------------------
||*-----------5--6--7--------|-----5--6--7--5--6--7--*||------------------------
||*--5--6--7-----------------|-----------------------*||------------------------
||---------------------------|------------------------||------------------------

                             4x
||----------------------------||-----------------|------------------------------
||*--------------------------*||-----------------|------------------------------
||*--------------------------*||--7--5-----2--0--|------------------------------
||---0--2-----2-----2-----2---||-----------------|--5--2-----0--1---------------

||----------------------------||-----------------|------------------------------
||*--------------------------*||-----------------|------------------------------
||*--------------------------*||--7--5-----2--0--|------------------------------
||---0--2-----2-----2-----2---||-----------------|--5--2-----0--1---------------

                             4x    1st and 2nd verses      12x
||----------------------------||----------------------------||--------------
||*--------------------------*||*--------------------------*||--------------
||*--------------------------*||*--------------------------*||--------------
||---0--2-----2-----2-----2---||----0h2-----2-----2-----2---||--------------

-----------------------|-------------------------|-------------------------|----
-----------------------|-------------------------|-------------------------|----
-----------------------|-------------------------|-------------------------|----
3h5-----5-----5-----5--|--3h5-----5-----5-----5--|--3h5-----5-----5-----5--|----

------------|------------------------------|------------------------------------
------------|--12--12--12--12--12--12--12--|------------------------------------
------------|------------------------------|------------------------------------
3--0--------|------------------------------|------------------------------------

                             4x
||------------------------------||-----
||*----------------------------*||-----
||*----------------------------*||-----
||------0h2-----2-----2-----2---||-----

  Interlude
|------------------|-
|------------------|-
|---7--5-----2--0--|-

Продолжаем грести бабос на ботах в Telegram.
Только в этот раз есть вариант автоматизировать это дело, привлекая рефералов. Вы можете заработать если »

|------------------|- 4x ---------------||----------------------------||-----------------|--------------- ---------------||*--------------------------*||-----------------|--------------- ---------------||*--------------------------*||--7--5-----------|--------------- 5--2-----0--1--||---0--2-----2-----2-----2---||-----------9--7--|--------------- ---------|-----|-----|-----|-----|--------|------------------------------------- ---------|-----|-----|-----|-----|--------|------------------------------------- ---------|-----|-----|-----|-----|--------|------------------------------------- 5--2-----|--0--|--1--|--2--|--2--|--0--2--|--2--2------------------------------- guitar solo 8x ||----------------------------||--------------|--------------------------------- ||*--------------------------*||--5--3--------|--------------------------------- ||*--------------------------*||--------5--3--|--1------------------------------ ||----3h5-----5-----5-----5---||--------------|-----5--0--1--------------------- 8x ||---------------------------||-----------------|--------------|---------------- ||*-------------------------*||-----------------|--------------|---------------- ||*-------------------------*||--7--5-----2--0--|--------------|---------------- ||---0h2-----2-----2-----2---||-----------------|--5--2-----0--|---------------- bass solo -------------------------|-----------------------|------------------------------ -------------------------|-----------------------|------------------------------ -------------------------|-----------------------|------------------------------ -5--7--5--7--5--7-----5--|--0--2--0--2--0--5--0--|------------------------------ ------------------------|--------------------|--------------------------|------- ------------------------|-----0--2--0--------|--------------------------|------- ------------------------|--------------2-----|--------------------------|------- 5--7--5--7--5--7-----5--|--2--------------2--|--5--7--5--7--5--7-----5--|------- ---------------------|--------------------------|-----------------------|------- ---------------------|--2--1--0-----------------|-----------------------|------- ------------------2--|-----------2--1--0-----0--|-----------------------|------- 0--2--0--2--0--2-----|--------------------------|--0--2--0--2--0--5-----|------- ------------------|-----------------------|------------------------------------- ------5-----------|--------5--------------|------------------------------------- 5--7-----0--2--5--|--5--7-----7--0--2--5--|------------------------------------- ------------------|-----------------------|------------------------------------- for the 3rd verse...repeat riffs from other verses

поиск лекарств
список лекарств






О сайтеАккордыХит-парадПоискУроки ФорумыИщу песню
ПрограммыСвежачок-сПодпискаСтатьи
Яндекс.Метрика