Табулатура Ill Nino | God Save Us гитара табулатуры уроки тексты песен Ill Nino текст lyrics песня аккорды песни ноты нота электрогитара струна  
   А Б В Г Д Е Ж З И К Л М Н О П Р С Т У Ф Х Ч Ш Ы Э Ю Я       Разные песни
1-9 A B C D E F G H I J K L M N O P Q R S T U V W Y Z      Все исполнители

    



группа Ill Nino, Табулатура песни God Save Us

Группа: Ill Nino - другие аккорды (17),   о группе (1 статей),   диски (4),   фотографии (5)
Табулатура песни: God Save Us
Просмотров: 1009
Прислал: DolZ (gogodols@globonet.ru)




    
Intro
------------------------------------------------------------------------------
------------------------------------------------------------------------------
-8-8-8-8\-7-7-7-7-------------------------------------------------------------
------------------------------------------------------------------------------
-6-6-6-6\-5-5-5-5-------------------------------------------------------------
------------------------------------------------------------------------------
 Guitar 1 plays it 4 times then Guitar 2 joins on second 4.                   
------------------------------------------------------------------------------
------------------------------------------------------------------------------
------------------------------------------------------------------------------
-------------------------------------0-0---0-0-0------------------------------
-------------------------------------0-0---0-0-0------------------------------
-0-0-0-0-1--0-0-0-0-1--0-0-0-0-1-----0-0---0-0-0------------------------------
 Guitar 1.......................     Both Guitars                             
------------------------------------------------------------------------------
------------------------------------------------------------------------------
------------------------------------------------------------------------------
-0-0-0-0-1---0-0-0-0-1---0-0-0-0-1---0-0-0-0-0--------------------------------

Продолжаем грести бабос на ботах в Telegram.
Только в этот раз есть вариант автоматизировать это дело, привлекая рефералов. Вы можете заработать если »

-0-0-0-0-1---0-0-0-0-1---0-0-0-0-1---0-0-0-0-0-------------------------------- -0-0-0-0-1---0-0-0-0-1---0-0-0-0-1---0-0-0-0-0-5*----------------------------- ..harm ------------------------------------------------------------------------------ ------------------------------------------------------------------------------ ------------------------------------------------------------------------------ -------------------------0-0-0-0-0-------------------------------------------- -------------------------0-0-0-0-0-------------------------------------------- -------------------------0-0-0-0-0-------------------------------------------- ...Repeat 1st Riff... ...Repeat 3rd Riff... ------------------------------------------------------------------------------ ------------------------------------------------------------------------------ ------------------------------------------------------------------------------ -0-0-0-0-0-0-0-8-8-8-8-8-8-8\-5-5-5-5-5-5-5/-8-8-8-8-8-8-8-------------------- -0-0-0-0-0-0-0-8-8-8-8-8-8-8\-5-5-5-5-5-5-5/-8-8-8-8-8-8-8-------------------- -0-0-0-0-0-0-0-8-8-8-8-8-8-8\-5-5-5-5-5-5-5/-8-8-8-8-8-8-8-------------------- Change the rhythm throughout the riff.








О сайтеАккордыХит-парадПоискУроки ФорумыИщу песню
ПрограммыСвежачок-сПодпискаСтатьи
Яндекс.Метрика