Аккорды Amorphis | Relief гитара табулатуры уроки тексты песен Amorphis текст lyrics песня аккорды песни ноты нота электрогитара струна  
   А Б В Г Д Е Ж З И К Л М Н О П Р С Т У Ф Х Ч Ш Ы Э Ю Я       Разные песни
1-9 A B C D E F G H I J K L M N O P Q R S T U V W Y Z      Все исполнители in english

    



группа Amorphis, Аккорды песни Relief

Продолжаем грести бабос на ботах в Telegram.
Только в этот раз есть вариант автоматизировать это дело, привлекая рефералов. Вы можете заработать если »

Группа: Amorphis - другие аккорды (26),   о группе (8 статей),   диски (7),   фотографии (20)
Аккорды песни: Relief
Просмотров: 890
Подобрал: Ari Lдmsд (alamsa@nettili ( (alamsa@nettilinja.fi))




    
E-tuning
p=pull off
b=bend
.=mute
Riff 1         Guitar 1                          Play 2x
e|-------------------------------------------------------|
B|-------------------------------------------------------|
G|-9--9--9--7p9p7--5--4--5--4--2--5-----4-------4b-------|
D|-----------------------------------7-------7-----6--7--|
A|-------------------------------------------------------|
E|-------------------------------------------------------|
               Guitar 2                                         
e|----------------------------------------------------------------| Iґm not
B|----------------------------------------------------------------| sure about
G|----------------------------------------------------------------| this part
D|----------------------------------------------------------------|
A|----------------------------------------------------------------|
E|-5-5-5-5-5-5-5-5-5-5-5-5-5-5-5-5-5-5-0-0-0-0-0-0-0-5-5-5-5-5-5--|
   . . . . . . . . . . . . . . . . . . . . . . . . . . . . . . .
Riff 2         Guitar 1                          Play 2x
e|-------------------------------------------------------|
B|-------------------------------------------------------|
G|-10-10-10-10-10-9p10p9-7--5--4--2--5-----4-----4b------|
D|--------------------------------------7-----7-----6--7-|

Продолжаем грести бабос на ботах в Telegram.
Только в этот раз есть вариант автоматизировать это дело, привлекая рефералов. Вы можете заработать если »

A|-------------------------------------------------------| E|-------------------------------------------------------| Guitar 2 e|-------------------------------------------------------| B|-------------------------------------------------------| G|-------------------------------------------------------| D|-------------------------------------------------------| A|--------12----------------7--------------2-----------7-| E|--------10----------------5--------------0-----------5-| Play Riff 1 2x Play Riff 2 2x Riff 3 Guitar 1 play 8x Guitar 2 ??? e|------------------------------------|------------------------------------| B|------------10------------10--------|------------------------------------| G|--2--5(p2)------9---2--5------9b--7-|------------------------------------| D|------------------------------------|------------------------------------| A|------------------------------------|------------------------------------| E|------------------------------------|------------------------------------| parenthesis = play sometimes

искать в аптеке
список лекарств






О сайтеАккордыХит-парадПоискУроки ФорумыИщу песню
ПрограммыСвежачок-сПодпискаСтатьи
Яндекс.Метрика