Табулатура Amorphis | Against Windows гитара табулатуры уроки тексты песен Amorphis текст lyrics песня аккорды песни ноты нота электрогитара струна  
   А Б В Г Д Е Ж З И К Л М Н О П Р С Т У Ф Х Ч Ш Ы Э Ю Я       Разные песни
1-9 A B C D E F G H I J K L M N O P Q R S T U V W Y Z      Все исполнители in english

    



группа Amorphis, Табулатура песни Against Windows

Продолжаем грести бабос на ботах в Telegram.
Только в этот раз есть вариант автоматизировать это дело, привлекая рефералов. Вы можете заработать если »

Группа: Amorphis - другие аккорды (26),   о группе (8 статей),   диски (7),   фотографии (20)
Табулатура песни: Against Windows
Просмотров: 1396
Подобрал: Олег (olderman@rambler.ru)




    
Standard tuning
riff1
|--------------------|--------------------|---------------------|
|-------3------------|-------3------------|-------3-------------|
|---3-5---5-322-2-2-|---3-5---5-322-2-2-|---3-5---5-322-2-2--|
|--------------------|--------------------|---------------------|
|--------------------|--------------------|---------------------|
|--------------------|--------------------|---------------------|
|                                                               |
|                                                               |
|--------------------|--------------------|---------------------| 
|-------3------------|-------3------------|-------3-------------|
|---3-5---5-3--------|---3-5---5-3--------|---3-5---5-3---------|
|------------00-0-0--|------------00-0-0--|-------------00-0-0--|
|--------------------|--------------------|---------------------|
|--------------------|--------------------|---------------------|
both gtrs.
|--------------------|
|-------3------------|
|---3-5---5-3-2-3----|
|--------------------|
|--------------------|
|--------------------|
play riff1 four times
riff2
|--------------------|--------------------|--------------------|
|-------6------------|-------6------------|--------------------|
|---6-8---8-655-5-5-|---6-8---8-655-5-5-|---6-8---8-655-5-5-|
|--------------------|--------------------|--------------------|
|--------------------|--------------------|--------------------|
|--------------------|--------------------|--------------------|
|--------------------|
|-------6------------|
|---6-8---8-6-5-6----|
|--------------------|
|--------------------|
|--------------------|
four times
riff3
 The Devil weds a widow....
|---------------------------|-------------------------|----------------------|
|---8~-----6----------------|-------------------------|----------------------|
|------------8-7~-------5~--|-------------------------|---------------7~-----|

Продолжаем грести бабос на ботах в Telegram.
Только в этот раз есть вариант автоматизировать это дело, привлекая рефералов. Вы можете заработать если »

|---------------------------|--8-7p8p7~----5-4p5p4----|---8~-8-8~-7-5--------| |---------------------------|---------------------5~--|----------------------| |---------------------------|-------------------------|----------------------| | _3_ _3_ _3_ | p.m ..... | | | ..... ..... | | | ..... ..... | | | ..... |---------------------------|-------------------------|----------------------| |---------------------------|-------------------------|----------------------| |--5--55555--5-5-5-55555----|-------------------------|-5-55555--5-5-5-55555-| |--5--55555--5-5-5-55555----|--5-55555--5-5-5-55555---|-5-55555--5-5-5-55555-| |--3--33333--3-3-3-33333----|--5-55555--5-5-5-55555---|-3-33333--3-3-3-33333-| |---------------------------|--3-33333--3-3-3-33333---|----------------------| |---6-5p6p5~----------------| |------------8-7-8~-7p8p7---| |-------------------------7~| |---------------------------| Play twice during the first verse. |---------------------------| |---------------------------| | _3_ | | ..... | | | ..... | |---------------------------| |---------------------------| |---------------------------| |--5--55555--5-5-5-55555----| |--5--55555--5-5-5-55555----| |--3--33333--3-3-3-33333----| C5 C5 D5 D5 |--------------------|------------------|----------------------|------------------| |--------------------|------------------|----------------------|------------------| |--------------------|------------------|----------------------|------------------| |--------------------|--5-4-----5-4-----|----------------------|--5-4-5-7-5-4-----| |---6-5------6-5-----|------6-5-----6-5-|--8-6-5-----8-6-5-----|--------------6-5-| |-------8~-------8~--|------------------|--------8~--------8~--|------------------|

поиск лекарств
список лекарств






О сайтеАккордыХит-парадПоискУроки ФорумыИщу песню
ПрограммыСвежачок-сПодпискаСтатьи
Яндекс.Метрика