Басовая табулатура Ill Nino | Unreal гитара табулатуры уроки тексты песен Ill Nino текст lyrics песня аккорды песни ноты нота электрогитара струна  
   А Б В Г Д Е Ж З И К Л М Н О П Р С Т У Ф Х Ч Ш Ы Э Ю Я       Разные песни
1-9 A B C D E F G H I J K L M N O P Q R S T U V W Y Z      Все исполнители

    



группа Ill Nino, Басовая табулатура песни Unreal

Группа: Ill Nino - другие аккорды (17),   о группе (1 статей),   диски (4),   фотографии (5)
Басовая табулатура песни: Unreal
Просмотров: 1122
Подобрал: DolZ (gogodols@globonet.ru)




    
Tuning: C (C,G,C,F,A,D)
intro:
------------------------------------------------------------------------------
------------------------------------------------------------------------------
------------------------------------------------------------------------------
-0-1-1-0-1-1------------------------------------------------------------------
-0-1---0-1--------------------------------------------------------------------
-0-1---0-1--------------------------------------------------------------------
                                                                              
verse:
------------------------------------------------------------------------------
------------------------------------------------------------------------------
------------------------------------------------------------------------------
-0-2-1------------------------------------------------------------------------
-0-2-1------------------------------------------------------------------------
-0-2-1------------------------------------------------------------------------
                      
                                                        

Продолжаем грести бабос на ботах в Telegram.
Только в этот раз есть вариант автоматизировать это дело, привлекая рефералов. Вы можете заработать если »

prechorus ------------------------------------------------------------------------------ ------------------------------------------------------------------------------ ------------------------------------------------------------------------------ -0-1-1-0-1-0------------------------------------------------------------------ -0-1---0-1-0------------------------------------------------------------------ -0-1---0-1-0------------------------------------------------------------------ chorus: ------------------------------------------------------------------------------ ------------------------------------------------------------------------------ ------------------------------------------------------------------------------ -7-7-7-7-7-7-7-3-3-3-3-3-3---------------------------------------------------- -7-7-7-7-7-7-7-3-3-3-3-3-3---------------------------------------------------- -7-7-7-7-7-7-7-3-3-3-3-3-3----------------------------------------------------








О сайтеАккордыХит-парадПоискУроки ФорумыИщу песню
ПрограммыСвежачок-сПодпискаСтатьи
Яндекс.Метрика