Басовая табулатура Amorphis | Moon And Sun Part2 гитара табулатуры уроки тексты песен Amorphis текст lyrics песня аккорды песни ноты нота электрогитара струна  
   А Б В Г Д Е Ж З И К Л М Н О П Р С Т У Ф Х Ч Ш Ы Э Ю Я       Разные песни
1-9 A B C D E F G H I J K L M N O P Q R S T U V W Y Z      Все исполнители in english

    



группа Amorphis, Басовая табулатура песни Moon And Sun Part2

Продолжаем грести бабос на ботах в Telegram.
Только в этот раз есть вариант автоматизировать это дело, привлекая рефералов. Вы можете заработать если »

Группа: Amorphis - другие аккорды (26),   о группе (8 статей),   диски (7),   фотографии (20)
Басовая табулатура песни: Moon And Sun Part2
Просмотров: 1170
Подобрал: Drew Schinzel (>)




    
riff 1                                            
|----------------|----------------|----------------|----------------|
|----------------|----------------|----------------|----------------|
|---8-7-5-7-5----|---8-7-5-7-5----|---8-7-5-7-5----|----------------|
|-5-----------8--|-5-----------8--|-5-----------8--|-5--8-7-5-7-5---|
|----------------|----------------|----------------|-------------8--|
|----------------|----------------|----------------|----------------|
                                                
 riff 2             
|-------------------------|
|-------------------------|
|-------------------------|
|-------------------------|
|-0--5-8-5-7--------3-2---|
|------------8----1-----3-|
                                       
 riff 3                             
|-----------------------------------|
|-----------------------------------|
|-----------------------------------|
|------------7-8--------------5-7-8-|
|------------7-8--------------5-7-8-|
|-0--000-000-5-6-0---0-000-00-3-5-6-|
                                   
 riff 4                       riff 5         
|---------------------------|---------------|

Продолжаем грести бабос на ботах в Telegram.
Только в этот раз есть вариант автоматизировать это дело, привлекая рефералов. Вы можете заработать если »

|---------------------------|---------------| |---7---8-7-5-7---7---------|---------------| |-5---5---------5---5--7----|-2--5--7---9-9-| |------------------------8--|-2--5--7---9-9-| |---------------------------|-0--3--5---7-7-| riff 6 |----------------------| |----------------------| |----------------------| |--7--7-7-----3--3-3---| |--7--7-7-----3--3-3---| |--5--5-5-----1--1-1---| after piano interlude riff 7 |-----------------------------------------|----| |-----------------------------------------|----| |-------------7-7---------7-7-7-7-7-7-7-7-|----| |--2--2--2----7-7--2--2---7-7-7-7-7-7-7-7-|--7-| |--2--2--2----5-5--2--2---5-5-5-5-5-5-5-5-|--7-| |--0--0--0---------0--0-------------------|--5-|

найти лекарство
список лекарств






О сайтеАккордыХит-парадПоискУроки ФорумыИщу песню
ПрограммыСвежачок-сПодпискаСтатьи
Яндекс.Метрика