Табулатура Helloween | I`m Alive гитара табулатуры уроки тексты песен Helloween текст lyrics песня аккорды песни ноты нота электрогитара струна  
   А Б В Г Д Е Ж З И К Л М Н О П Р С Т У Ф Х Ч Ш Ы Э Ю Я       Разные песни
1-9 A B C D E F G H I J K L M N O P Q R S T U V W Y Z      Все исполнители

    



группа Helloween, Табулатура песни I`m Alive

Группа: Helloween - другие аккорды (63),   о группе (1 статей),   диски (11),   фотографии (8)
Табулатура песни: I`m Alive
Просмотров: 770
Подобрал: Forever




    

                          I'm Alive
                             
Tabbed by Landis Bender
landis_bender@yahoo.com

                Intro:  Guitar 2                            
E-------|--||---------------------------|-------------------
B-------|--||---------------------------|-------------------
G---4:--|--||*--------------------------|-------------------
D---4:--|--||*--------------------------|-------------------
A-------|--||---------------------------|-------------------
E-------|--||---2--5--4--0--2--5--4--0--|-------------------
                                                            
    Guitar 1 is rhythm (Plays power chords)                 
E---------------------------|--------------------------|----
B---------------------------|--------------------------|----
G---------------------------|--------------------------|----
D---------------------------|--------------------------|----
A---------------------------|--------------------------|----
E---2--5--4--0--2--5--4--0--|--2--5--4--0--2--5--4--0--|----
                                                            
                                                            
E----------------------------||-----------------------------
B----------------------------||-----------------------------
G---------------------------*||-----------------------------
D---------------------------*||-----------------------------
A------------4--2------------||-----------------------------
E---2--5--4--------5--4--0---||-----------------------------
                                                            
    Guitar 3 (harmony for gtr2 on repeat)                   
E---------------------------|--------------------------|----
B---------------------------|--------------------------|----
G---------------------------|--------------------------|----
D---------------------------|--------------------------|----
A------4--2--------4--2-----|-----4--2--------4--2-----|----
E---5--------4--5--------5--|--5--------4--5--------5--|----
                                                            
                                                            
E---------------------------------|-------------------------
B---------------------------------|-------------------------
G---------------------------------|-------------------------
D---------------------------------|-------------------------
A------------4--2--------4--2-----|-------------------------
E---------5--------4--5--------5--|-------------------------
                                                            
                                                            
E---------------------------||------------------------------
B---------------------------||------------------------------
G---------------------------||------------------------------
D---------------------------||------------------------------
A------4--2--4--5--4--2-----||------------------------------
E---5--------------------4--||------------------------------
                                                            
    Rhythm Fig 1 (verse)                                    
E----------------------------------------------------|------
B----------------------------------------------------|------
G----------------------------------------------------|------
D----------------------------------------------------|------
A----p4------------------------p4--------------------|------
E---0-2--2--2--2--2--2--2-----0-2--2--2--2--2--2--2--|------
                                                            
                                                            
E-----------------------------------------------------------
B-----------------------------------------------------------
G-----------------------------------------------------------
D-----------------------------9-----------------------------
A-------p4--------------------7-----------------------------
E------0-2--2--2--2--2--2--2--0-----------------------------
                                                            
                                                            
E------------------------|----------------------------------
B------------------------|----------------------------------
G------------------------|----------------------------------
D------------------------|----------------------------------
A------------------------|----------------------------------
E------------------------|----------------------------------
                                                            
                                                            
E----------------------------------------------------|------
B----------------------------------------------------|------
G----------------------------------------------------|------
D----------------------------------------------------|------
A----p4------------------------p4--------------------|------
E---0-2--2--2--2--2--2--2-----0-2--2--2--2--2--2--2--|------
                                                            
                                                            
E-----------------------------------------------|-----------
B-----------------------------------------------|-----------
G-----------------------------------------------|-----------
D--------------------------9--------------------|-----------
A----p4--------------------7--------------------|-----------
E---0-2--2--2--2--2--2--2--0--------------------|-----------
                                                            
    Rhythm Fig2 (w/fill 1 and 2)                            
E-----------------------------------------------------------
B-----------------------------------------------------------
G-----------------------------------------------------------
D---6-----------------6-------------------------------------
A---4-------4---------4-------------------------------------
E-----------2-----------------------------------------------
                                                            
                                                            
                      End Rhy Fig 2                         
E-----------------------------------------------------------
B-----------------------------------------------------------
G-----------------------------------------------------------
D---7-----------------------------9-------------------------
A---5-----------------------------7-------------------------
E-----------------------------------------------------------
                                                            
                         Fill 1                             
E------------------|-----------------------------|----------
B------------------|-----------------------------|----------
G------------------|--------6--4-----------------|----------
D------------------|--------------7--6--3--4--6--|----------
A------------------|-----4-----------------------|----------
E------------------|-----------------------------|----------
                                                            
                                                            
E------------------------|--------------------------|-------
B------------------------|--------------------------|-------
G------------------------|-----6--4-----------------|-------
D---7--6--4--3--4--6-----|-----------7--6--3--4--6--|-------
A---------------------4--|--4-----------------------|-------
E------------------------|--------------------------|-------
                                                            
                                                            
E-----------------------------------------------------------
B-----------------------------------------------------------
G-----------------------------------------------------------
D------7-----h7p64-----------9--------h9p76---------------
A--------------------5-------------------------7------------
E-----------------------------------------------------------
                                                            
       Chorus:      Rhythm Fig 3                            
E---|-----------|-----------|-----------|-------------------
B---|-----------|-----------|-----------|-------------------
G---|-----------|-----------|-----------|-------------------
D---|-----------|-----------|-----------|-------------------
A---|--4-----4--|--4-----4--|--4-----4--|-------------------
E---|--2--0--2--|--2--0--2--|--2--0--2--|-------------------
                                                            
                                                            
E---------------------|-----|-----------|--------------|----
B---------------------|-----|-----------|--------------|----
G---------------------|-----|-----------|--------------|----
D---7-----6-----------|-----|-----------|--------------|----
A---5-----4--4-----4--|-----|--4-----4--|-----4-----4--|----
E------------2--0--2--|-----|--2--0--2--|-----2--0--2--|----
                                                            
    Ohhhhhhhhhhhhhhhhhhhhhhhhhhh                            
E---------------------------------------------------|-------
B---------------------------------------------------|-------
G---------------------------------------------------|-------
D---6-----------------------6-----------------------|-------
A---4--4--4--4--4--4--4--4--4--4--4--4--4--4--4--4--|-------
E---------------------------------------------------|-------
                                                            
                                                            
E---------------|-------------------------------------------
B---------------|-------------------------------------------
G---------------|-------------------------------------------
D---6--4--------|-------------------------------------------
A---4--2--7--6--|-------------------------------------------
E---------5--4--|-------------------------------------------
                                                            
       Repeat Rhythm Fig 1, 2, and chorus                   
E-----------------------------------------------------------
B-----------------------------------------------------------
G-----------------------------------------------------------
D-----------------------------------------------------------
A-----------------------------------------------------------
E-----------------------------------------------------------
     
  Solo / higher notes refer to lead guitar             
E-----------------------------------------------------------
B-----------------------------------------------------------
G------11--------------11--------------13-----------14------
D-----------------------------------------------------------
A------4----------------------------------------------------
E------2---2--2--2-----2---2--2--2-----2---2--2--2--2-------
                                                            
                                                            
E------------|----------------------------------------------
B------------|----------------------------------------------
G------------|----------------------------------------------
D------------|----------------------------------------------
A------------|----------------------------------------------
E---2--2--2--|----------------------------------------------
                                                            
                                                            
E-----------------------------------------------------------
B---12^--------------12-------------------------------------
G------------------------------------14--------------13-----
D-----------------------------------------------------------
A---4-------------------------------------------------------
E---2----2--2--2-----2---2--2--2-----2---2--2--2------------

Продолжаем грести бабос на ботах в Telegram.
Только в этот раз есть вариант автоматизировать это дело, привлекая рефералов. Вы можете заработать если »

E------------|---------------------------------------------- B------------|---------------------------------------------- G------------|---------------------------------------------- D------------|---------------------------------------------- A------------|---------------------------------------------- E---2--2--2--|---------------------------------------------- E----------------------------------------------------------- B----------------------------------------------------------- G---10--------------10--------------11--------------13------ D---6------------------------------------------------------- A---4---4--4--4-----4---4--4--4-----4---4--4--4-----4------- E----------------------------------------------------------- E------------|--------|------------------------------------- B------------|--------|------------------------------------- G------------|--------|------------------------------------- D------------|--------|------------------------------------- A---4--4--4--|--------|------------------------------------- E------------|--------|------------------------------------- E----------------------------------------------------|------ B----------------------------------------------------|------ G---13-----------------------------------------------|------ D---6------------------------------------------------|------ A---4---4--4--4--4--4--4--4--4--4--4--4--4--4--4--4--|------ E----------------------------------------------------|------ D E-----------------------------------|----------------------- B-----------------------------------|----------------------- G-----------------------------------|----------------------- D---7p4-----7p4-----7p4-----7p4-----|----------------------- A--------5-------5-------5-------5--|----------------------- E-----------------------------------|----------------------- E E-----------------------------------|----------------------- B-----------------------------------|----------------------- G-----------------------------------|----------------------- D---9p5-----9p5-----9p5-----9p5-----|----------------------- A--------7-------7-------7-------7--|----------------------- E-----------------------------------|----------------------- F# E---------------------------------------|------------------- B---------------------------------------|------------------- G---------------------------------------|------------------- D---11p7-----11p7-----11p7-----11p7-----|------------------- A---------9--------9--------9--------9--|------------------- E---------------------------------------|------------------- E E---------------------------------|------------------------- B---------------------------------|------------------------- G---------------------------------|------------------------- D---9-----------------------------|------------------------- A---------------------------------|------------------------- E---------------------------------|------------------------- G E-----------------------------------|----------------------- B-----------------------------------|----------------------- G---7p4-----7p4-----7p4-----7p4-----|----------------------- D--------5-------5-------5-------5--|----------------------- A-----------------------------------|----------------------- E-----------------------------------|----------------------- A E-----------------------------------|----------------------- B-----------------------------------|----------------------- G---9p5-----9p5-----9p5-----9p5-----|----------------------- D--------7-------7-------7-------7--|----------------------- A-----------------------------------|----------------------- E-----------------------------------|----------------------- B E---------------------------------------|------------------- B---------------------------------------|------------------- G---11p7-----11p7-----11p7-----11p7-----|------------------- D---------9--------9--------9--------9--|------------------- A---------------------------------------|------------------- E---------------------------------------|------------------- E E----------------------------------------------------------- B----------------------------------------------------------- G---16------------------------------------------------------ D----------------------------------------------------------- A----------------------------------------------------------- E----------------------------------------------------------- E---||-----------------------------------14--14--14--14----- B---||---12--12--12--12--12--12--14--15--------------------- G---||*----------------------------------19--19--19--19----- D---||*--17--17--17--17--17--17--19--21--------------------- A---||------------------------------------------------------ E---||------------------------------------------------------ E---14-----------------|------------------------------------ B----------15--14--12--|------------------------------------ G---19-----------------|------------------------------------ D----------21--19--17--|------------------------------------ A----------------------|------------------------------------ E----------------------|------------------------------------ E----------------------------------------------------------- B---11--11--11--11--11--12--14--11-------------------------- G--------------------------------------12--------11--------- D---16--16--16--16--16--17--19--16-------------------------- A--------------------------------------19--------17--------- E----------------------------------------------------------- E--------------------------|-------------------------------- B--------------------------|-------------------------------- G------9---------7---------|-------------------------------- D--------------------------|-------------------------------- A------16------------------|-------------------------------- E----------------18--------|-------------------------------- E--------------------------------------14--14--14--14------- B------12--12--12--12--12--12--14--15----------------------- G--------------------------------------19--19--19--19------- D------17--17--17--17--17--17--19--21----------------------- A----------------------------------------------------------- E----------------------------------------------------------- E---14--------------|--------------------------------------- B-------15--14--12--|--------------------------------------- G---19--------------|--------------------------------------- D-------21--19--17--|--------------------------------------- A-------------------|--------------------------------------- E-------------------|--------------------------------------- E----------------------------------------------------------- B---11--11--11--11--11--14--12--11-----11--------14--------- G----------------------------------------------------------- D---16--16--16--16--16--19--17--16-----16--------19--------- A----------------------------------------------------------- E----------------------------------------------------------- E-----------||---------------------------------------------- B------12---||---------------------------------------------- G------19--*||---------------------------------------------- D----------*||---------------------------------------------- A-----------||---------------------------------------------- E-----------||---------------------------------------------- C# E---||------------------------------------------------------ B---||------------------------------------------------------ G---||*----------------------------------------------------- D---||*--6-----------6--7--6-------------------------------- A---||------------9----------------------------------------- E---||------------------------------------------------------ E D C# E---------------|------------------------------------------- B---------------|------------------------------------------- G---------------|------------------------------------------- D---9--7--6-----|------------------------------------------- A---------------|------------------------------------------- E---------------|------------------------------------------- F# E D E E----------------------------------------------------------- B----------------------------------------------------------- G----------------------------------------------------------- D---------------------------------------9-----7-----9------- A---4--------2--4--5--4------------------------------------- E----------------------------------------------------------- On repeat E----||----------------------------------------------------- B----||----------------------------------------------------- G---*||----------------------------------------------------- D---*||----------------------------------------------------- A----||-----4--5--6----------------------------------------- E----||--0--2--3--4----------------------------------------- Harmony lead 2 2 guitars E---||-------------------------------------------








О сайтеАккордыХит-парадПоискУроки ФорумыИщу песню
ПрограммыСвежачок-сПодпискаСтатьи
Яндекс.Метрика