Табулатура Helloween | If I Could Fly гитара табулатуры уроки тексты песен Helloween текст lyrics песня аккорды песни ноты нота электрогитара струна  
   А Б В Г Д Е Ж З И К Л М Н О П Р С Т У Ф Х Ч Ш Ы Э Ю Я       Разные песни
1-9 A B C D E F G H I J K L M N O P Q R S T U V W Y Z      Все исполнители

    



группа Helloween, Табулатура песни If I Could Fly

Группа: Helloween - другие аккорды (63),   о группе (1 статей),   диски (11),   фотографии (8)
Табулатура песни: If I Could Fly
Просмотров: 2049
Прислал: Forever




    
HELLOWEEN - IF I COULD FLY
                     Version 1.0 - (MAY-2002)
Transcribed by:Jehad Haddad
For Questions, Comments, Newest Version, or Corrections contact
 Jehad Haddad: at jehad101@yahoo.com
Check Out Death8699.com, With More Transcriptions On It:
 http://www.death8699.com
..  - palm mute          /  - slide up to
  - slide down to      ~  - vibrato
h  - hammer on          b  - bend
p  - pull off            Suffixes for bend
                          ph - pinch harmonic
                           f - full bend    h - half bend
*  - see comment           r - release      t - tap bend
X  - percussion mute       ~ - vibrato bend
@  - slight palm mute     () - ghost note, sustained note
Normal Tuning 
IF I COULD FLY
Riff A
intro and chorus:
piano arranged for guitar
|--------------------------------------------------------------------|
|--------------------------------------------------------------------|
|--17--16-------17--16-----------12-------14--16---------------------|
|----------14-----------14----12----14-------------------------------| 
|--------------------------------------------------------------------|
|--------------------------------------------------------------------|

|-------------------------------------------------------17--19-------|
|------------------------------------------------15--17--------------|
|--17--16-------17--16-----------12-------14--16---------------------| 
|----------14-----------14----12----14-------------------------------| 
|--------------------------------------------------------------------|
|--------------------------------------------------------------------|

|--------------------------------------------------------------------|
|--------------------------------------------------------------------|
|--17--16-------17--16-----------12-------14--16---------------------|Gtr 
|----------14-----------14----12----14-------------------------------| I
|--------------------------------------------------------------------|
|--------------------------------------------------------------------|
|                                                                    |
|--------------------------------------------------------------------|
|--------------------------------------------------------------------|
|--------------------------------------------------------------------|Gtr 
|--777777777777777777777-55555555555--222222----7---7----------------| II
|--777777777777777777777-55555555555--222222----7---7----------------|
|--555555555555555555555-33333333333--000000--005-005----------------|
verse
|--------------------------------------------------------------------|
|--------------------------------------------------------------------|
|--------------------------------------------------------------------|Gtr 
|--------------------------------------------------------------------| I
|--------------------------------------------------------------------|
|--------------------------------------------------------------------|
|                                                                    |
|--------------------------------------------------------------------|
|--------------------------------------------------------------------|
|--------------------------------------------------------------------|Gtr 
|--777777777777777777777-55555555555--222222----7---7----------------| II

Продолжаем грести бабос на ботах в Telegram.
Только в этот раз есть вариант автоматизировать это дело, привлекая рефералов. Вы можете заработать если »

|--777777777777777777777-55555555555--222222----7---7----------------| |--555555555555555555555-33333333333--000000--005-005----------------| chorus |--------------------------------------------------------------------| |--------------------------------------------------------------------| |--17--16-------17--16-----------12-------14--16---------------------|Gtr |----------14-----------14----12----14-------------------------------| I |--------------------------------------------------------------------| |--------------------------------------------------------------------| | | |--------------------------------------------------------------------| |--------------------------------------------------------------------| |--------------------------------------------------------------------|Gtr |--777777777777777777777-55555555555--222222----7---7----------------| II |--777777777777777777777-55555555555--222222----7---7----------------| |--555555555555555555555-33333333333--000000--005-005----------------| solo |---/15~~--15-17-----------------------------------------------------| |----------------15~-15-17-------------------------------------------| |--------------------------14~---------14-17---14-17--14-17-14~------|Gtr |-----------------------------------/14------14-----14---------------| I |--------------------------------------------------------------------| |--------------------------------------------------------------------| | | |--------------------------------------------------------------------| |--------------------------------------------------------------------| |--------------------------------------------------------------------|Gtr |--7------------10------------------7--------------------------------| II |--7------------10------------------7--------------------------------| |--5------------8-------------------5--------------------------------| |--/12-13-15b17~--15-13-12-------------------------------------------| |--------------------------15-13-12-15-13-12-------------------------| |--------------------------------------------16-14-12-14~------------| |--------------------------------------------------------------------| |--------------------------------------------------------------------| |--------------------------------------------------------------------| | | |--------------------------------------------------------------------| |--------------------------------------------------------------------| |--------------------------------------------------------------------| |--3--------------------------5------------------------7-------------| |--3--------------------------5------------------------7-------------| |--1--------------------------3------------------------5-------------| interludex2 |---------------------------------| |---------------------------------| |---------------------------------| |---7----5-----3----------5-------| |---7----5-----3----------5-------| |---5----3-----1-11111111-3-------|








О сайтеАккордыХит-парадПоискУроки ФорумыИщу песню
ПрограммыСвежачок-сПодпискаСтатьи
Яндекс.Метрика