Табулатура Helloween | I Want Out гитара табулатуры уроки тексты песен Helloween текст lyrics песня аккорды песни ноты нота электрогитара струна  
   А Б В Г Д Е Ж З И К Л М Н О П Р С Т У Ф Х Ч Ш Ы Э Ю Я       Разные песни
1-9 A B C D E F G H I J K L M N O P Q R S T U V W Y Z      Все исполнители

    



группа Helloween, Табулатура песни I Want Out

Группа: Helloween - другие аккорды (63),   о группе (1 статей),   диски (11),   фотографии (8)
Табулатура песни: I Want Out
Просмотров: 1226
Прислал: Forever




    

                           I Want Out Tab.
 Intro:(Guit 1)
e:-20------20------20------20------18------20-------20------20------20------20|
B:-----18------18------18------18------18------18~------18------18-------18---|
G:----------------------------------------------------------------------------|
D:----------------------------------------------------------------------------|
A:----------------------------------------------------------------------------|
E:----------------------------------------------------------------------------|
   
                             3x
e:-------18------20--18------------|
B:---18------18----------21--20--17|
G:---------------------------------|
D:---------------------------------|
A:---------------------------------|
E:---------------------------------|
  
Intro:(Guit 2)
e:-17------17------17------17------15------17-------17------17------17-----17|
B:-----15------15------15------15------15------15~------15------15------15---|
G:---------------------------------------------------------------------------|
D:---------------------------------------------------------------------------|
A:---------------------------------------------------------------------------|
E:---------------------------------------------------------------------------|



                                    Riff 1                     Riff 2
e:------15------17--15----------------|------20~-------20--24b26~|--------------|
B:--15------15----------18--17--15|-18~-------18~----------------|--------------|
G:--------------------------------|------------------------------|-7--5--4------|
D:--------------------------------|------------------------------|-5--3--2--5--7|
A:--------------------------------|------------|-----------------|----------3--5|
E:--------------------------------|------------------------------|--------------|                                                        

  While singing(only bass)  Bridge
e:------------------------|-----------------------------|
B:-Repeat-Riff-2----------|-----------------------------|
G:------------------------|-----------------------------|
D:------------------------|-7--7--5---------------------|
A:------------------------|-5--5--3--5--8--7--7777777777|
E:------------------------|----------3--6--5--5555555555|
                                                        (__________)


  Chorus                                     2x
e:-----------------------------------------------|------------|
B:-----------------------------------------------|Repeat-Intro|
G:-----------------------------------------------|------------|
D:-7--3--------5--------5--7--3--------5--------5|------------|
A:-5--1--3--3--3--3--3--3--5--1--3--3--3--3--3--3|------------|
E:-----------------------------------------------|------------|
        (_____)   (____)         (___)   (____)

   While Singing part 2
e:---------------------------------------------------------------------------|
B:---------------------------------------------------------------------------|
G:---------------------------------------------------------------------------|
D:-------7-----7-----7-----7--------7-----7--------3-----3-----3-----3-------|
A:-5--5--5--5--5--5--5--5--5--5--5--5--5--5--1--1--1--1--1--1--1--1--1--1--1-|
E:---------------------------------------------------------------------------|
(__________________________________________________________________________


e:-----------------------------------------------------------------|
B:-----------------------------------------------------------------|
G:-----------------------------------------------------------------|
D:-3-----3--------5-----5-----5-----5--------5-----5--------7-----7|
A:-1--1--1--3--3--3--3--3--3--3--3--3--3--3--3--3--3--5--5--5--5--5|
E:-----------------------------------------------------------------|
  _________________________________________________________________)


e:--------------|----------------------------|--------------|--------------|
B:-Repeat-Riff-1|-Repeat-While-singing-part-2|-Repeat-Bridge|-Repeat-chorus|
G:--------------|----------------------------|--------------|--------------|
D:--------------|----------------------------|--------------|--------------|
A:--------------|----------------------------|--------------|--------------|
E:--------------|----------------------------|--------------|--------------|


e:---------------------------------------------------------------------------|
B:---------------------------------------------------------------------------|
G:---------------------------------------------------------------------------|
D:-------------3--3--3--3-----------3-----------1--3--1----------------------|
A:-1--1--1--1--1--1--1--1--1--1--1--1--1--3--5-----------5--3--------5--5--5-|
E:-------------------------------------------------------------3--3--3--3--3-|


e:---------------------------------------------------------------------------|
B:---------------------------------------------------------------------------|
G:---------------------------------------------------------------------------|
D:---------------------------------------------------------------------------|
A:-5--------5---------3--5--3----------3---------2--2--2---------3---------1-|
E:-3--3--3--3--3--5--7-----------7--5--1--1--1--0--0--0--1--1--1--1--3--5----|

                      
                     
e:---------------------|
B:---------------------|
G:----Tremolo=>16h17p16|
D:---------------------|
A:-3--1----------------|
E:-------5--3----------|


  Guitar solo(Kai Hansen)
e:---------------------------------------------------------------------------|

Продолжаем грести бабос на ботах в Telegram.
Только в этот раз есть вариант автоматизировать это дело, привлекая рефералов. Вы можете заработать если »

B:-----------------------20b22~--20b22rb20~--20b22rb20--18p17h18p17p18h17p18h| G:-19b21--19b21rb19--17------------------------------------------------------| D:---------------------------------------------------------------------------| A:---------------------------------------------------------------------------| E:---------------------------------------------------------------------------| e:---------------------------------------------------------------------------| B:17p18h17~------------------------------------------------------------------| G:-------------------------------------------------------------------------16| D:-----------15--14--12--15--14--12--15--14---17--15--14--17--15--14--17~----| A:---------------------------------------------------------------------------| E:---------------------------------------------------------------------------| (____________________________________________________________) e:---------------------------------------------------------------------------| B:---------------------------------------------------------------------------| G:h17p16h17p16h17p16h17p16h17------------------------------------------------| D:-----------------------------16h17p16h17p16h17p16h17p16h17-----------------| A:------------------------------------------------------------16h17p16h17p16h| E:---------------------------------------------------------------------------| e:-------------------------------------------20---------20---------17--19--20| B:------------------------------------20b22------20b22------20b22------------| G:------------------19b21--19b21rb19-----------------------------------------| D:---------------------------------------------------------------------------| A:17p16h17p16----------------------------------------------------------------| E:-------------17~-----------------------------------------------------------| e:--22--20--22b24~--22b24--20--19--20--19--17h19p17------17------------------| B:---------------------------------------------------20------20--18--20--18--| G:---------------------------------------------------------------------------| D:---------------------------------------------------------------------------| A:---------------------------------------------------------------------------| E:---------------------------------------------------------------------------| e:---------------------------------------------------------------------------| B:17h18p17------17-----------------------------------------------------------| G:----------19------19h17p19--16--17--16------16-----------------------------| D:----------------------------------------19------19--17--19--17--15p17h15---| A:-------------------------------------------------------------------------- E:---------------------------------------------------------------------------| e:---------------------| B:---------------------| G:---------------------| D:----15---------------| A:17-----17--15--13----| E:-------------------17| 2ndGuitar solo(Both) UP=Guit 1 Down Guit 2 e:--------------------------------------------------------------------15b17rb| B:--15--17-18~---18b20rb18--13~--13------13--15~--17--18~--18b20rb18---------| G:-----------------------------------14--------------------------------------| D:--12~-14-15~---15b17rb15-------------------12~--14--15~--15b17rb15--17b19rb| A:--------------------------15~--15--12--15----------------------------------| E:------------------------------------------------------------------------- Chorus 2(Guit 1) Nx e:15~-----|--------------|------------------------| B:-----15~|-Repeat-Chorus|------------------------| G:--------|--------------|------------------------| D:17~-----|--------------|--9--5--------7--------7| A:-----17~|--------------|--7--3--5--5--5--5--5--5| E:--------|--------------|------------------------| (____) (_____) Chorus 2(Guit 2) e:--22------22------22------22------20------22------22------22------22------2| B:------20------20------20------20------20------20~-----20------20------20---| G:---------------------------------------------------------------------------| D:---------------------------------------------------------------------------| A:---------------------------------------------------------------------------| E:---------------------------------------------------------------------------| e:2------22------20------22--20------------| B:---20------20------20----------23--22--20| G:-----------------------------------------| D:-----------------------------------------| A:-----------------------------------------| E:-----------------------------------------| Chorus 2(Guit 3) e:-19------19------19------19------17------19-------19------19------19------1| B:-----17------17------17------17------17------17~------17------17------17---| G:---------------------------------------------------------------------------| D:---------------------------------------------------------------------------| A:---------------------------------------------------------------------------| E:---------------------------------------------------------------------------| e:9------17------19--17-------------|-----------|---| B:---17------17----------20--19--17-|-----------|---| G:----------------------------------|-----------|End| D:----------------------------------|--9--9--9--|---| A:----------------------------------|--7--7--7--|---| E:----------------------------------|--0--0--0--|---|








О сайтеАккордыХит-парадПоискУроки ФорумыИщу песню
ПрограммыСвежачок-сПодпискаСтатьи
Яндекс.Метрика