Табулатура Helloween | Forever And One гитара табулатуры уроки тексты песен Helloween текст lyrics песня аккорды песни ноты нота электрогитара струна  
   А Б В Г Д Е Ж З И К Л М Н О П Р С Т У Ф Х Ч Ш Ы Э Ю Я       Разные песни
1-9 A B C D E F G H I J K L M N O P Q R S T U V W Y Z      Все исполнители

    



группа Helloween, Табулатура песни Forever And One

Группа: Helloween - другие аккорды (63),   о группе (1 статей),   диски (11),   фотографии (8)
Табулатура песни: Forever And One
Просмотров: 1370
Прислал: Forever




    
Author/Artist: Helloween
Title: Forever And One
Album: Time Of The Oath
Tune Down Your E sting One Half Step
-------------------------------------------------------------------------------
-------10-12b13-12h13p12p10-12-----8---88b10r8-6-8-5--------8b10r8---8---------
-9-9-9-------------------------9--x--9----------------7-5----------7---7/9---9-
---------------------------------x------------------------7--------------------
-------------------------------------------------------------------------------
-------------------------------------------------------------------------------
  Solo                                                                        
----10-------------------------------------------------------------------------
-------13--13b15r13--------------------------10-10-12-13-12--10h12p10----------
-12----------------12b14r12-------------------------------------------12-10----
----------------------------1210----------------------------------------------

Продолжаем грести бабос на ботах в Telegram.
Только в этот раз есть вариант автоматизировать это дело, привлекая рефералов. Вы можете заработать если »

----------------------------------12-10--12------------------------------------ ------------------------------------------------------------------------------- -15b17r15-13-12h13p12----------------15----------------15---------------------- ----------------------15--13-15-15b17--117r15p13-15b17----17r15p13-15b17------- ------------------------------------------------------------------------------- ------------------------------------------------------------------------------- ------------------------------------------------------------------------------- -------------------------------------------------------------------------------

Ит аутсорсинг в Тюмени отзывы
Энциклопедия аутсорсинга, новости рынка. Автоновости Тюмени
its72.ru







О сайтеАккордыХит-парадПоискУроки ФорумыИщу песню
ПрограммыСвежачок-сПодпискаСтатьи
Яндекс.Метрика