Табулатура Helloween | A Little Time гитара табулатуры уроки тексты песен Helloween текст lyrics песня аккорды песни ноты нота электрогитара струна  
   А Б В Г Д Е Ж З И К Л М Н О П Р С Т У Ф Х Ч Ш Ы Э Ю Я       Разные песни
1-9 A B C D E F G H I J K L M N O P Q R S T U V W Y Z      Все исполнители

    



группа Helloween, Табулатура песни A Little Time

Группа: Helloween - другие аккорды (63),   о группе (1 статей),   диски (11),   фотографии (8)
Табулатура песни: A Little Time
Просмотров: 887
Прислал: Forever




     A
Little Time
tabbed by Landis Bender
landis_bender@yahoo.com

       Intro (Gtr1)                                         
E---|-----------------------|-------------------------------
B---|-----------------------|-------------------------------
G---|-----------------------|-------------------------------
D---|--5--5--5--4--------2--|-------------------------------
A---|--3--3--3--2--------0--|-------------------------------
E---|-----------------------|-------------------------------
                                                            
                                                            
E------------------------------|----------------------------
B------------------------------|----------------------------
G------------------------------|----------------------------
D---------------------7--------|----------------------------
A------5-----7--------5-----7--|----------------------------
E------3-----5-----x-----x--5--|----------------------------
                                                            
                                                            
E------------------------------|----------------------------
B------------------------------|----------------------------
G------------------------------|----------------------------
D---4--4--4--4--4-----------2--|----------------------------
A---2--2--2--2--2-----------0--|----------------------------
E------------------------------|----------------------------
                                                            
                                                            
E---------------------------------|-------------------------
B---------------------------------|-------------------------
G---------------------------------|-------------------------
D---------------------------------|-------------------------
A---5-----5--5--5--5--/--7--7--7--|-------------------------
E---3-----3--3--3--3--/--5--5--5--|-------------------------
                                                            
    Gtr 2 comes in with power chords                        
E------------------------|--------------------------|-------
B------------------------|--------------------------|-------
G------------------------|--------------------------|-------
D---4--4--4--4--------2--|-----------------7--------|-------
A---2--2--2--2--------0--|--5-----7--------5-----7--|-------
E------------------------|--3-----5-----x-----x--5--|-------
                                                            
                                                            
E------------------------|-----------------|--|-------------
B------------------------|-----------------|--|-------------
G------------------------|-----------------|--|-------------
D---4--4--4--4--------2--|-----------------|--|-------------
A---2--2--2--2--------0--|--5-----------7--|--|-------------
E------------------------|--3-----------5--|--|-------------
                                                            
    Rhy Fig 1                                               
E---||------------------------------------------------------
B---||------------------------------------------------------
G---||*-----------------------------------------------------
D---||*--4--4--4--4-----------------------------------------
A---||---2--2--2--2-----------------------------------------
E---||------------------------------------------------------
                                                            
    (Use this RF for verse until brid                       
E------|--------------------------|-------------------------
B------|--------------------------|-------------------------
G------|--------------------------|-------------------------
D---2--|-----------------7--------|-------------------------
A---0--|--5--------7-----5-----7--|-------------------------
E------|--3--------5--x-----x--5--|-------------------------
                                                            
                                                            
E------------------------|----------------------------------
B------------------------|----------------------------------
G------------------------|----------------------------------
D---4--4--4--4--------2--|----------------------------------
A---2--2--2--2--------0--|----------------------------------
E------------------------|----------------------------------
                                                            
    Two guitars                                             
E-------------------------------------||--------------------
B-------------------------------------||--------------------
G---------------------------2--4--6--*||--------------------
D------------------2--4--5--4--5--7--*||--------------------
A---5-----2--4--5--4--5--7------------||--------------------
E---3-----3--5--7---------------------||--------------------
                                                            
    Bridge  (Ohhhhh...)                                     
E---------------------------------------|-------------------
B---------------------------------------|-------------------
G---------------------------------------|-------------------
D---7-----------------------------------|-------------------
A---5--5--5--5--5--5--5--5--5--5--5--5--|-------------------
E---------------------------------------|-------------------
                                                            
                         I hear you                         
E---------------------------------------|-------------------
B---------------------------------------|-------------------
G---------------------------------------|-------------------
D---------------------------------------|-------------------
A---5--5--5--5--5--5--5--5--5--5--5--5--|-------------------
E---------------------------------------|-------------------
                                                            
    say                                                     
E---------------------------------------|-------------------
B---------------------------------------|-------------------
G---------------------------------------|-------------------
D---------------------------------------|-------------------
A---4-----------------------------------|-------------------
E---2--2--2--2--2--2--2--2--2--2--2--2--|-------------------
                                                            
                               that                         
E---------------------------------------|-------------------
B---------------------------------------|-------------------
G---------------------------------------|-------------------
D---------------------------------------|-------------------
A---------------------------------------|-------------------
E---2--2--2--2--2--2--2--2--2--2--2--2--|-------------------
                                                            
    is the way                                              
E---------------------------------------|-------------------
B---------------------------------------|-------------------
G---------------------------------------|-------------------
D---------------------------------------|-------------------
A---5-----------------------------------|-------------------
E---3--3--3--3--3--3--3--3--3--3--3--3--|-------------------
                                                            
                            of the                          
E---------------------------------------|-------------------
B---------------------------------------|-------------------
G---------------------------------------|-------------------
D---------------------------------------|-------------------
A---------------------------------------|-------------------
E---3--3--3--3--3--3--3--3--3--3--3--3--|-------------------
                                                            
    world                                                   
E------------------------------------|----------------------
B------------------------------------|----------------------
G------------------------------------|----------------------
D------------------------------------|----------------------
A---4--4-----------4--4--------------|----------------------
E---2--2-----------2--2--------------|----------------------
                                                            
                                        Ohh                 
E------------------------------------|--|-------------------
B------------------------------------|--|-------------------
G------------------------------------|--|-------------------
D------------------------------------|--|-------------------
A---4--4-----------------4--4--4--4--|--|-------------------
E---2--2-----------------2--2--2--2--|--|-------------------
                                                            
                                                            
E---------------------------|-------------------------------
B---------------------------|-------------------------------
G---------------------------|-------------------------------
D---7-----------------------|-------------------------------
A---5-----------------------|-------------------------------

Продолжаем грести бабос на ботах в Telegram.
Только в этот раз есть вариант автоматизировать это дело, привлекая рефералов. Вы можете заработать если »

E---------------------------|------------------------------- hear what I say E------------------------|---------------------------------- B------------------------|---------------------------------- G------------------------|---------------------------------- D------------------------|---------------------------------- A---4--------------------|---------------------------------- E---2--------------------|---------------------------------- I wanna do so much E---------------------------------|------------------------- B---------------------------------|------------------------- G---------------------------------|------------------------- D---------------------------------|------------------------- A---5-----------------------------|------------------------- E---3-----------------------------|------------------------- in my way (1rst time, back to Rf1 E----------------------------------------------------------- B----------------------------------------------------------- G----------------------------------------------------------- D----------------------------------------------------------- A---7--------------8---------------------------------------- E---5--------------6---------------------------------------- 2nd time to chorus) Chorus E---||---------------21^---21^---|--|----------------------- B---||---------------22-^--22-^--|--|----------------------- G---||*--------------------------|--|----------------------- D---||*--------4-----------------|--|----------------------- A---||---------2-----------------|--|----------------------- E---||---------------------------|--|----------------------- 3x E----------------------------||----------------------------- B----------------------------||----------------------------- G---------------------------*||----------------------------- D---------------------------*||----------------------------- A---5--------------------7---||----------------------------- E---3--------------------5---||----------------------------- Tiiiiiiiimmmmmmme E----------------------------------------------------------- B----------------------------------------------------------- G----------------------------------------------------------- D----------------------------------------------------------- A------9--------------------------7------------------------- E------7--------------------------5------------------------- Rhythm for s E------|-----------------------|---------------------------- B------|-----------------------|---------------------------- G------|-----------------------|---------------------------- D------|-----------------------|---------------------------- A------|--------------5--5--5--|---------------------------- E------|--------------3--3--3--|---------------------------- E------------------------------|---------------------------- B------------------------------|---------------------------- G------------------------------|---------------------------- D------------------------------|---------------------------- A---5-----------------2--2--2--|---------------------------- E---3-----------------0--0--0--|---------------------------- E------------------------------|---------------------------- B------------------------------|---------------------------- G------------------------------|---------------------------- D------------------------------|---------------------------- A---2-----------------5--5--5--|---------------------------- E---0-----------------3--3--3--|---------------------------- E------------------------------|----------------------|----- B------------------------------|----------------------|----- G------------------------------|----------------------|----- D------------------------------|----------------------|----- A---5-----------------2--2--2--|--2-------------------|----- E---3-----------------0--0--0--|--0-----------3p0--0--|----- E------------------------|---------------------------------- B------------------------|---------------------------------- G------------------------|---------------------------------- D------------------------|---------------------------------- A---5-----------2--2--2--|---------------------------------- E---3-----------0--0--0--|---------------------------------- E---------------------------------------|--|---------------- B---------------------------------------|--|---------------- G---------------------------------------|--|---------------- D---------------------------------------|--|---------------- A---2--------------4--------------------|--|---------------- E---0--------------2--------------------|--|---------------- E------------------------------|-----------------------|---- B------------------------------|-----------------------|---- G------------------------------|-----------------------|---- D------------------------------|-----------------------|---- A---5-----------------7--7--7--|--7-----------4--4--4--|---- E---3-----------------5--5--5--|--5-----------2--2--2--|---- E------------------------------|---------------------------- B------------------------------|---------------------------- G------------------------------|---------------------------- D------------------------------|---------------------------- A---4-----------------7--7--7--|---------------------------- E---2-----------------5--5--5--|---------------------------- E---------------------------|-------------------|----------- B---------------------------|-------------------|----------- G---------------------------|-------------------|----------- D---------------------------|-------------------|----------- A---7--------------4--4--4--|--4----------------|----------- E---5--------------2--2--2--|--2--------5p2--2--|----------- E------------------------|--------------------------|------- B------------------------|--------------------------|------- G------------------------|--------------------------|------- D------------------------|--------------------------|------- A---7-----------4--4--4--|--4-----------5--5--5--7--|------- E---5-----------2--2--2--|--2-----------3--3--3--5--|------- Free time till alarm rings E----------------------------------------------------------- B----------------------------------------------------------- G----------------------------------------------------------- D------------------9---------------------------------------- A---7--7-----------7---------------------------------------- E---5--5-----------0---------------------------------------- Play Chorus riff until Fade out E----------------------------------------------------------- B----------------------------------------------------------- G----------------------------------------------------------- D----------------------------------------------------------- A----------------------------------------------------------- E-----------------------------------------------------------

Купить диван спб дешево
Развивающая игрушка Жирафики Юла. Купите сейчас
sumodesign.ru







О сайтеАккордыХит-парадПоискУроки ФорумыИщу песню
ПрограммыСвежачок-сПодпискаСтатьи
Яндекс.Метрика