Табулатура Helloween | A Game We Shouldnґt Play гитара табулатуры уроки тексты песен Helloween текст lyrics песня аккорды песни ноты нота электрогитара струна  
   А Б В Г Д Е Ж З И К Л М Н О П Р С Т У Ф Х Ч Ш Ы Э Ю Я       Разные песни
1-9 A B C D E F G H I J K L M N O P Q R S T U V W Y Z      Все исполнители

    



группа Helloween, Табулатура песни A Game We Shouldnґt Play

Группа: Helloween - другие аккорды (63),   о группе (1 статей),   диски (11),   фотографии (8)
Табулатура песни: A Game We Shouldnґt Play
Просмотров: 1221
Прислал: Forever




    
Helloween - A Game we Shouldnґt Play
Transcription by: Jonas Lindholm
Contact: Jormungand_aragoth@hotmail.com
Figure timing out for yourselfs, but itґs pretty accurate i think.
Not completely sure about the solo though...
Tune to Eb
Riff A
|----------------------------------------------------------|
|----------------------------------------------------------|
|----------------------------------------------------------|Gtr I
|-----------5-4--------------------------------------------|
|--2/7-2-3~-----4-4h5p4p0-3--------------------------------|
|----------------------------------------------------------|

Riff B
|----------------------------------------------------------|
|----------------------------------------------------------|
|----------------------------------------------------------|Gtr I
|----------------------------------------------------------|
|----------------------------------------------------------|
|--1212-00-1212-00-1212-0--6~-5~---------------------------|

Riff C
|----------------------------------------------------------|
|----------------------------------------------------------|
|----------------------------------------------------------|Gtr I
|----------------------------------------------------------|
|--7777-9999-10101010-9999-x 2-----------------------------|
|----------------------------------------------------------|
|----------------------------------------------------------|
|----------------------------------------------------------|
|----------------------------------------------------------|Gtr I
|----------------------------------------------------------|
|--7777-9999-10101010-14141414-12121212-10101010-9999-6666-|
|----------------------------------------------------------|

Riff D
|----------------------------------------------------------|
|----------------------------------------------------------|
|----------------------------------------------------------|Gtr I
|----------------------------------------------------------|
|--9999-11111111-12121212-11111111-x 2---------------------|
|----------------------------------------------------------|
|------------------------------------------------------------------|
|------------------------------------------------------------------|
|------------------------------------------------------------------|Gtr I
|------------------------------------------------------------------|
|--9999-11111111-12121212-16161616-14141414-12121212-11111111-8888-|
|------------------------------------------------------------------|

Riff E
|----------------------------------------------------------|
|----------------------------------------------------------|
|----------------------------------------------------------|Gtr I
|--10--12---------------------10--12--7---10---------------|

Продолжаем грести бабос на ботах в Telegram.
Только в этот раз есть вариант автоматизировать это дело, привлекая рефералов. Вы можете заработать если »

|--10--12---2-2222-2-2222-----10--12--7---10---------------| |--8---10---0-0000-0-0000-----8---10--5---8----------------| Riff F |----------------------------------------------------------| |----------------------------------------------------------| |------------------------------------2---------------------|Gtr I |-------------------------5----------2---------------------| |------------5-3-2-0------3-33333333-0---------------------| |--0--2-3-0-----------3-5----------------------------------| Play Riff C Play Riff D Play Riff E Play Riff F Play Riff A Riff G |----------------------------------------------------------| |----------------------------------------------------------| |----------------------------------------------------------|Gtr I |-----------5-4--------------------------------------------| |--2/7-2-3~-----4-4h5p4p0-3--------------------------------| |----------------------------------------------------------| |----------------------------------------------------------| |----------------------------------------------------------| |----9---5------6---------5--------------------------------|Gtr 2 |----9---5------6---------5--------------------------------| |----7---3------4---------3--------------------------------| |----------------------------------------------------------| Riff H ..this is not completly correct...SOLO |----------------------------------------------------------| |----------------------------------------------------------| |----------------------------------------------------------|Gtr 2 |------------------------------------------5-6-7-8-9-------| |--8-888-888-888-88------------------------5-6-7-8-9-------| |-------------------8-888-888-888-88--x-3--3-4-5-6-7-------| Play Riff B Riff I |----------------------------------------------------------| |----------------------------------------------------------| |----------------------------------------------------------|Gtr I |--9-10-11-12---9-10-11-10---------------------------------| |--7-8--9--10---7-8--9--8----------------------------------| |--7-8--9--10---7-8--9--8----------------------------------| Play Riff F Play Riff B End.








О сайтеАккордыХит-парадПоискУроки ФорумыИщу песню
ПрограммыСвежачок-сПодпискаСтатьи
Яндекс.Метрика