Табулатура Red Hot Chili Peppers | Under The Bridge  (2) гитара табулатуры уроки тексты песен Red Hot Chili Peppers текст lyrics песня аккорды песни ноты нота электрогитара струна  
   А Б В Г Д Е Ж З И К Л М Н О П Р С Т У Ф Х Ч Ш Ы Э Ю Я       Разные песни
1-9 A B C D E F G H I J K L M N O P Q R S T U V W Y Z      Все исполнители in english

    



группа Red Hot Chili Peppers, Табулатура песни Under The Bridge (2)

Продолжаем грести бабос на ботах в Telegram.
Только в этот раз есть вариант автоматизировать это дело, привлекая рефералов. Вы можете заработать если »

Группа: Red Hot Chili Peppers - другие аккорды (395),   о группе (3 статей),   диски (15),   фотографии (113)
Табулатура песни: Under The Bridge (2)
Просмотров: 2571
Подобрал: garik (garik999@mail.ru)




    
Intro
e:----------------|---------------------------|----------------------|
B:1----------1----|------------0--------------|-------------------0--|
G:------0-------0-|----------------------1----|----------------------|
D:---2-----2------|-2-0------------2--------2-|-2-0------------2-----|
A:3---------------|------3-2-----2-----2------|------3-2--2/3-----3--|
E:----------------|------------0--------------|----------------------|
e:----------------|---------------------------|----------------------|
B:-----1h3p1------|-----------0---------------|----------------------|
G:-----------0----|---------------------1-----|-------------------0--|
D:----------------|---2/4--4-------2------2---|-2-0-----------2----2-|
A:-3--------------|---3/5--5-----2----2-------|------3-2--2/3---3----|
E:----------------|-----------0---------------|----------------------|
                                                             
e:----------------|---------------------------|----------------------|

Продолжаем грести бабос на ботах в Telegram.
Только в этот раз есть вариант автоматизировать это дело, привлекая рефералов. Вы можете заработать если »

B:1---------------|---------------------------|---------------1h3p1--| G:---0------------|---------1-----------------|--------0-----------0-| D:----------------|----2------2---2-0---------|--2--------2----------| A:------2-0-------|-2-----2-----------3-0--2/3|-----3----------------| E:-----------3-2--|---------------------------|----------------------| e:----------------|---------------------------| B:--------0-------|---------------------------| G:----------------|---1------1----------------| D:-2/4-4-------2--|-----2------2--------------| A:-3/5-5-----2---2|-------2------2------------| E:--------0-------|---------------------------| С вопросами и пожеланиями обращаться по адресу: garik999@.mail.ru

искать в аптеке
список лекарств






О сайтеАккордыХит-парадПоискУроки ФорумыИщу песню
ПрограммыСвежачок-сПодпискаСтатьи
Яндекс.Метрика