Табулатура Red Hot Chili Peppers | The Zephyr Song  (3) гитара табулатуры уроки тексты песен Red Hot Chili Peppers текст lyrics песня аккорды песни ноты нота электрогитара струна  
   А Б В Г Д Е Ж З И К Л М Н О П Р С Т У Ф Х Ч Ш Ы Э Ю Я       Разные песни
1-9 A B C D E F G H I J K L M N O P Q R S T U V W Y Z      Все исполнители in english

    



группа Red Hot Chili Peppers, Табулатура песни The Zephyr Song (3)

Продолжаем грести бабос на ботах в Telegram.
Только в этот раз есть вариант автоматизировать это дело, привлекая рефералов. Вы можете заработать если »

Группа: Red Hot Chili Peppers - другие аккорды (395),   о группе (3 статей),   диски (15),   фотографии (113)
Табулатура песни: The Zephyr Song (3)
Просмотров: 1987
Прислал: red_elvis (red_elvis@rambler.ru)




    
 The Zephyr Song                                 
VesTin V
                                                                
                                                                     
E||--------3------------|--------1------------|---------------------|
B||-----1---------------|-----0---------------|--------0------------|
G||--2------------------|--0------------------|-----0---------------|
D||---------------------|---------------------|--2------------------|
A||---------------------|---------------------|---------------------|
E||---------------------|---------------------|---------------------|
                                                                  
---------------------|--------0------------|---------------------|
--------1------------|-----1---------------|-----0--3------------|
-----2---------------|--2------------------|--0------------------|
--3------------------|---------------------|---------------------|
---------------------|---------------------|---------------------|
---------------------|---------------------|---------------------|
                                                                      
---------------------|--------0------------|--------0-----3---1---0--|
--------0------------|--------1------------|-----1-------------------|
-----0---------------|-----2---------------|--2--------2-------------|
--2------------------|--3------------------|-------------------------|
---------------------|---------------------|-------------------------|
---------------------|---------------------|-------------------------|
                                                                               
--------------1--0-------|-------------------------|-------------0------------|
-----0--3-----------3/---|--------0-----3---1---0--|--------1--1/--3--1--0----|
--0--------0-------------|-----0-------------------|-----2--------------------|
-------------------------|--2--------2-------------|--3-----------------------|
-------------------------|-------------------------|--------------------------|
-------------------------|-------------------------|--------------------------|
                                                                              
--------0-----3---5---0--|--------------1--0-------|-------------------------|
-----1-------------------|-----0--3-----------3----|--------0-----3---0---1--|
--2--------2-------------|--0--------0-------------|-----0-------------------|
-------------------------|-------------------------|--2--------2-------------|
-------------------------|-------------------------|-------------------------|
-------------------------|-------------------------|-------------------------|
                                                                             
------------------------|--------0-----3---1---0--|--------------1--0-------|
--------1--------1------|-----1-------------------|-----0--3-----------3----|
-----2--------2---------|--2--------2-------------|--0--------0-------------|
--3--------3------------|-------------------------|-------------------------|
------------------------|-------------------------|-------------------------|
------------------------|-------------------------|-------------------------|
                                                                              
-------------------------|-------------0-----------|--------0-----3---5---0--|
--------0-----3---1---0--|--------1--1/--3--1~-----|-----1-------------------|
-----0-------------------|-----2-------------------|--2--------2-------------|
--2--------2-------------|--3----------------------|-------------------------|
-------------------------|-------------------------|-------------------------|
-------------------------|-------------------------|-------------------------|
                                                                             
--------------1--0-------|-------------------------|------------------------|
-----0--3-----------3----|--------0-----3---0---1--|--------1--------1------|
--0--------0-------------|-----0-------------------|-----2--------2---------|
-------------------------|--2--------2-------------|--3--------3------------|
-------------------------|-------------------------|------------------------|
-------------------------|-------------------------|------------------------|
                                                                                
------------------|-----2--10-----------------2--|-----2-----10----------------|
------------------|--3---------10----------------|--3-----3--------10----------|
------------------|----------------------11------|-------------------------11--|
------------------|------------------12----------|---------------------12------|
------------------|------------------------------|-----------------------------|
------------------|------------------------------|-----------------------------|
                                                        
---------------------------|-----0---------7--5--------|
-------------8-------------|--2-----10--------------5--|
------------------7-----4--|------------9--------6-----|
------9--------------5-----|---------------------------|
--10-----10----------------|---------------------------|
---------------------------|---------------------------|
                                                             
-----2--10-----------------2--|-----2-----10----------------|
--3---------10----------------|--3-----3--------10----------|
----------------------11------|-------------------------11--|
------------------12----------|---------------------12------|
------------------------------|-----------------------------|
------------------------------|-----------------------------|
                                                        
---------------------------|-----0---------7--5--------|
-------------8-------------|--2-----10--------------5--|
------------------7-----4--|------------9--------6-----|
------9--------------5-----|---------------------------|
--10-----10----------------|---------------------------|
---------------------------|---------------------------|
                                                                              
--------------3---1---0--|--------------1--0-------|-------------------------|
--------5----------------|-----0--3-----------3/---|--------0-----3---1---3--|
-----5-----2-------------|--0--------0-------------|-----0-------------------|
--7----------------------|-------------------------|--2--------2-------------|
-------------------------|-------------------------|-------------------------|
-------------------------|-------------------------|-------------------------|
                                                                              
-------------0-----------|--------0-----3---1---0--|--------------1--0-------|
--------1--1/--3--1~-----|-----1-------------------|-----0--3-----------3/---|
-----2-------------------|--2--------2-------------|--0--------0-------------|
--3----------------------|-------------------------|-------------------------|
-------------------------|-------------------------|-------------------------|
-------------------------|-------------------------|-------------------------|
                                                                                
-------------------------|-------------0----------0--|--------0-----3---5---0--|
--------0-----3---1---3--|--------1--1/--3--1--3-----|-----1-------------------|
-----0-------------------|-----2---------------------|--2--------2-------------|
--2--------2-------------|--3------------------------|-------------------------|
-------------------------|---------------------------|-------------------------|
-------------------------|---------------------------|-------------------------|
                                                                             
--------------1--0-------|-------------------------|------------------------|
-----0--3-----------3----|--------0-----3---0---1--|--------1--------1------|
--0--------0-------------|-----0-------------------|-----2--------2---------|
-------------------------|--2--------2-------------|--3--------3------------|
-------------------------|-------------------------|------------------------|
-------------------------|-------------------------|------------------------|
                                                                                
------------------|-----2--10-----------------2--|-----2-----10----------------|
------------------|--3---------10----------------|--3-----3--------10----------|
------------------|----------------------11------|-------------------------11--|
------------------|------------------12----------|---------------------12------|
------------------|------------------------------|-----------------------------|
------------------|------------------------------|-----------------------------|
                                                        
---------------------------|-----0---------7--5--------|
-------------8-------------|--2-----10--------------5--|
------------------7-----4--|------------9--------6-----|
------9--------------5-----|---------------------------|
--10-----10----------------|---------------------------|
---------------------------|---------------------------|
                                                             
-----2--10-----------------2--|-----2-----10----------------|
--3---------10----------------|--3-----3--------10----------|
----------------------11------|-------------------------11--|
------------------12----------|---------------------12------|
------------------------------|-----------------------------|
------------------------------|-----------------------------|
                                                        
---------------------------|-----0---------7--5--------|
-------------8-------------|--2-----10--------------5--|
------------------7-----4--|------------9--------6-----|
------9--------------5-----|---------------------------|
--10-----10----------------|---------------------------|
---------------------------|---------------------------|
                                                             
-----2--10-----------------2--|-----2-----10----------------|
--3---------10----------------|--3-----3--------10----------|
----------------------11------|-------------------------11--|
------------------12----------|---------------------12------|
------------------------------|-----------------------------|
------------------------------|-----------------------------|
                                                         
---------------------------|-----0-------------5--5-----|
-------------8-------------|--2-----10-----0------5--5--|
------------------7-----4--|------------9--12-----6-----|
------9--------------5-----|---------------12-----7-----|
--10-----10----------------|---------------10-----------|
---------------------------|----------------------------|
                                                               
--10------10-----------------2--|-----2-----10----------------|
--10----------10----------------|--3-----3--------10----------|
--11--11----------------11------|-------------------------11--|
--12----------------12----------|---------------------12------|
--------------------------------|-----------------------------|
--------------------------------|-----------------------------|
                                                        
---------------------------|-----0---------7--5--------|
-------------8-------------|--2-----10--------------5--|
------------------7-----4--|------------9--------6-----|

Продолжаем грести бабос на ботах в Telegram.
Только в этот раз есть вариант автоматизировать это дело, привлекая рефералов. Вы можете заработать если »

------9--------------5-----|---------------------------| --10-----10----------------|---------------------------| ---------------------------|---------------------------| --12--10--12--12------12----|--10----12----------------| ----------------------------|------------12r-----10----| ----------------------------|--------------------------| ----------------------------|--------------------------| ----------------------------|--------------------------| ----------------------------|--------------------------| --10--8--10--10------10--8--|--10----12----------------| ----------------------------|------------12r-----10----| ----------------------------|--------------------------| ----------------------------|--------------------------| ----------------------------|--------------------------| ----------------------------|--------------------------| --12--10--12--12----------|--10----12----------------| --------------------------|------------12r-----10----| --------------------------|--------------------------| --------------------------|--------------------------| --------------------------|--------------------------| --------------------------|--------------------------| --10--8--10--10------10--8--|--10----12-----------------| ----------------------------|------------12r-----10-----| ----------------------------|------------------------9--| ----------------------------|---------------------------| ----------------------------|---------------------------| ----------------------------|---------------------------| --0---0--0--0---0-----0---0-----|--------------------------------| --------------------------------|--0---0--0--0---0-----0---0-----| --------------------------------|--0---0--0--0---0-----0---0-----| --10--10-10-10--10----10--10----|--12--12-12-12--12----12--12----| --12--12-12-12--12----12--12----|--------------------------------| --------------------------------|--------------------------------| --0--0-0-0--0----0--0----|--1--1-1-1--1----1--1----|--0--0-0-0--0----0--0----| --0--0-0-0--0----0--0----|--1--1-1-1--1----1--1----|--1--1-1-1--1----1--1----| --0--0-0-0--0----0--0----|--2--2-2-2--2----2--2----|--2--2-2-2--2----2--2----| --2--2-2-2--2----2--2----|--3--3-3-3--3----3--3----|-------------------------| -------------------------|-------------------------|-------------------------| -------------------------|-------------------------|-------------------------| -------------------------|--0--0-0-0--0----0--0----|--1----------------| --3--3-3-3--3----3--3----|--0--0-0-0--0----0--0----|--1----------------| --4--4-4-4--4----4--4----|--0--0-0-0--0----0--0----|--2----------------| --5--5-5-5--5----5--5----|--2--2-2-2--2----2--2----|--3----------------| -------------------------|-------------------------|-------------------| -------------------------|-------------------------|-------------------| -----2--10-----------------2--|-----2-----10----------------| --3---------10----------------|--3-----3--------10----------| ----------------------11------|-------------------------11--| ------------------12----------|---------------------12------| ------------------------------|-----------------------------| ------------------------------|-----------------------------| ---------------------------|-----0---------7--5--------| -------------8-------------|--2-----10--------------5--| ------------------7-----4--|------------9--------6-----| ------9--------------5-----|---------------------------| --10-----10----------------|---------------------------| ---------------------------|---------------------------| -----2--10-----------------2--|-----2-----10----------------| --3---------10----------------|--3-----3--------10----------| ----------------------11------|-------------------------11--| ------------------12----------|---------------------12------| ------------------------------|-----------------------------| ------------------------------|-----------------------------| ---------------------------|-----0---------7--5--------| -------------8-------------|--2-----10--------------5--| ------------------7-----4--|------------9--------6-----| ------9--------------5-----|---------------------------| --10-----10----------------|---------------------------| ---------------------------|---------------------------| -----2--10-----------------2--|-----2-----10----------------| --3---------10----------------|--3-----3--------10----------| ----------------------11------|-------------------------11--| ------------------12----------|---------------------12------| ------------------------------|-----------------------------| ------------------------------|-----------------------------| ---------------------------|-----0-------------5--5-----| -------------8-------------|--2-----10-----0------5--5--| ------------------7-----4--|------------9--12-----6-----| ------9--------------5-----|---------------12-----7-----| --10-----10----------------|---------------10-----------| ---------------------------|----------------------------| --10------10-----------------2--|-----2-----10----------------| --10----------10----------------|--3-----3--------10----------| --11--11----------------11------|-------------------------11--| --12----------------12----------|---------------------12------| --------------------------------|-----------------------------| --------------------------------|-----------------------------| ---------------------------|-----0---------7--5--------| -------------8-------------|--2-----10--------------5--| ------------------7-----4--|------------9--------6-----| ------9--------------5-----|---------------------------| --10-----10----------------|---------------------------| ---------------------------|---------------------------| -----2--10-----------------2--|-----2-----10----------------| --3---------10----------------|--3-----3--------10----------| ----------------------11------|-------------------------11--| ------------------12----------|---------------------12------| ------------------------------|-----------------------------| ------------------------------|-----------------------------| ---------------------------|-----0---------7--5--------| -------------8-------------|--2-----10--------------5--| ------------------7-----4--|------------9--------6-----| ------9--------------5-----|---------------------------| --10-----10----------------|---------------------------| ---------------------------|---------------------------| -----2--10-----------------2--|-----2-----10----------------| --3---------10----------------|--3-----3--------10----------| ----------------------11------|-------------------------11--| ------------------12----------|---------------------12------| ------------------------------|-----------------------------| ------------------------------|-----------------------------| ---------------------------|-----0---------7--5--------| -------------8-------------|--2-----10--------------5--| ------------------7-----4--|------------9--------6-----| ------9--------------5-----|---------------------------| --10-----10----------------|---------------------------| ---------------------------|---------------------------| -----2--10-----------------2--|-----2-----10----------------| --3---------10----------------|--3-----3--------10----------| ----------------------11------|-------------------------11--| ------------------12----------|---------------------12------| ------------------------------|-----------------------------| ------------------------------|-----------------------------| ---------------------------|-----0---------7--5--------| -------------8-------------|--2-----10--------------5--| ------------------7-----4--|------------9--------6-----| ------9--------------5-----|---------------------------| --10-----10----------------|---------------------------| ---------------------------|---------------------------| -----2--10-----------------2--|-----2-----10----------------| --3---------10----------------|--3-----3--------10----------| ----------------------11------|-------------------------11--| ------------------12----------|---------------------12------| ------------------------------|-----------------------------| ------------------------------|-----------------------------| ---------------------------|-----0---------7--5--------|--10----------------| -------------8-------------|--2-----10--------------5--|--10----------------| ------------------7-----4--|------------9--------6-----|--11----------------| ------9--------------5-----|---------------------------|--12----------------| --10-----10----------------|---------------------------|--------------------| ---------------------------|---------------------------|--------------------|

лекарство в аптеке
список лекарств






О сайтеАккордыХит-парадПоискУроки ФорумыИщу песню
ПрограммыСвежачок-сПодпискаСтатьи
Яндекс.Метрика