Басовая табулатура Amorphis | In To Hiding гитара табулатуры уроки тексты песен Amorphis текст lyrics песня аккорды песни ноты нота электрогитара струна  
   А Б В Г Д Е Ж З И К Л М Н О П Р С Т У Ф Х Ч Ш Ы Э Ю Я       Разные песни
1-9 A B C D E F G H I J K L M N O P Q R S T U V W Y Z      Все исполнители in english

    



группа Amorphis, Басовая табулатура песни In To Hiding

Продолжаем грести бабос на ботах в Telegram.
Только в этот раз есть вариант автоматизировать это дело, привлекая рефералов. Вы можете заработать если »

Группа: Amorphis - другие аккорды (26),   о группе (8 статей),   диски (7),   фотографии (20)
Басовая табулатура песни: In To Hiding
Просмотров: 1866
Подобрал: Grotezk (Andre Leknes) (Grotezk (Andre Leknes))




    
Intro:
Git.1 (lead)
|----------------------------------------------------|
|----------------------------------------------------|
|----------------------------------------------------|
|---4-2-----2----------------------------------------|
|-------5-4---5-4-2---------2---2-4------------------|
|-------------------3-2-3-5---5----------------------|
Git.2 (rythm)
|----------------------------------------------------|
|----------------------------------------------------|
|---4--7--6------------------------------------------|
|---4--7--6---5--4-----------------------------------|
|---2--5--4---5--4-----------------------------------|
|-------------3--2-----------------------------------|


Interlude 1:
* This part is played 4 times. The three first you play with 
  lead and rythm-guitar. The last time both guitars plays
  the rythm-part.
Git.1 (lead)
|----------------------------------------------------|
|----------------------------------------------------|
|----------------------------------------------------|
|----------------------------------------------------|
|---------4------------1-----------------------------|
|-0-0-0-0----3--2-2-2-2------------------------------|

Git.2 (rythm)
|----------------------------------------------------|
|----------------------------------------------------|
|---------6------------------------------------------|
|---------6--5--4------------------------------------|
|---------4--5--4------------------------------------|
|-0-0-0-0----3--2------------------------------------|


Interlude 2:
Git.1 (lead)
|--------------------------------------------------------------------------|
|--------------------------------------------------------------------------|
|-------------------------------------------------------4-5-4h5p4---4------|
|---------------6-7---------------------------------6-7-----------7---7----|
|-----------7-8---------------7-8-7-5-----------7-8---------------------8--|
|-0-00-0-00---------0-00-0-00---------0-00-0-00----------------------------|
Git.2 (rythm)
|----------------------------------------------------|
|----------------------------------------------------|
|----------------------------------------------------|
|----------------------------------------------------|
|----------------------------------------------------|
|-0-00-0-00-etc-etc----------------------------------|


Git.1 and git.2
|--------------------------------------------------------------------------|
|--------------------------------------------------------------------------|
|-------------------------------------------------------4-5-4h5p4---4------|
|---------------6-7---------------------------------6-7-----------7---7----|
|-----------7-8---------------7-8-7-5-----------7-8---------------------8--|
|-00000000-----------00000000----------00000000----------------------------|

Git.1 
|---------------------------------------------------------7-8-7h8p7---7-------|
|----------------9-10--------------------------------9-10-----------9---10----|
|--99999999-9-10-----99999999-9-10-9-7-99999999-9-10-----------------------10-|
|-----------------------------------------------------------------------------|
|-----------------------------------------------------------------------------|
|-----------------------------------------------------------------------------|
Git.2
|--------------------------------------------------------------------------|
|--------------------------------------------------------------------------|
|-------------------------------------------------------4-5-4h5p4---4------|
|---------------6-7---------------------------------6-7-----------7---7----|
|-----------7-8---------------7-8-7-5-----------7-8---------------------8--|
|--00000000----------00000000----------00000000----------------------------|


Verse:
Git.1 (lead)
* This part is played 4 times. The rythm-guitar plays

Продолжаем грести бабос на ботах в Telegram.
Только в этот раз есть вариант автоматизировать это дело, привлекая рефералов. Вы можете заработать если »

two different rythms. The islander slips..... |------------------------------------------------------| |------------------------------------------------------| |------------------------------------------------------| |------9-----------------------------------------------| |-7-7h9--10-9-7---------------------7---------------10-| |--------------10-10h12-7-10-8--8h10--10-8--7--7h8p7---| Git.2 (rythm) |----------------------------------------------------| |----------------------------------------------------| |----------------------------------------------------| |-2--5--7--9-----------------------------------------| |-2--5--7--9-----------------------------------------| |-0--3--5--7-----------------------------------------| Interlude 3: Git.1 (lead) |----------------------------------------------------| |----------------------------------------------------| |----------------------------------------------------| |-------9---------------------9----------------------| |-9-7-9---10--9-10-9-7--9-7-9---7--7-10-9------------| |-----------------------------------------7----------| Git.2 (rythm) |----------------------------------------------------| |----------------------------------------------------| |-4-----2--------------------------------------------| |-4--5--2--4-----------------------------------------| |-2--5--0--4-----------------------------------------| |----3-----2-----------------------------------------| Interlude 4: Git.1 (lead) |----------------------------------------------------| |----------------------------------------------------| |----------------------------------------------------| |-------8-------------------8------------------------| |-8-6-8---9--8-9-8-6--8-6-8---6--6-9-8---------------| |--------------------------------------6-------------| Git.2 (rythm) |----------------------------------------------------| |----------------------------------------------------| |-3--------------------------------------------------| |-3--4--6--3-----------------------------------------| |-1--4--6--3-----------------------------------------| |----2--4--1-----------------------------------------| Outro: * Not sure about this part Git.1 and git.2 |----------------------------------------------------| |----------------------------------------------------| |----------------------------------------------------| |-------------------------------------------9-7~-----| |-------------------8-7~--------------------7-5~-----| |-0-00000-00000-000-6-5~--0-00000-00000-000----------| Finish: Git.1 and git.2 |----------------------------------------------------| |----------------------------------------------------| |----------------------------------------------------| |-9-99999-7-9----------------------------------------| |-7-77777-5-7----------------------------------------| |----------------------------------------------------| Song-structure: Intro x4 Interlude 1 x4 Interlude 2 x8 (4,2,2) Verse x4 Interlude 3 x4 Interlude 4 x4 Outro

поиск лекарств
список лекарств

princessamama.ru

В продаже - Барное Украшение, цены ниже! Неликвидные остатки

princessamama.ru








О сайтеАккордыХит-парадПоискУроки ФорумыИщу песню
ПрограммыСвежачок-сПодпискаСтатьи
Яндекс.Метрика