Табулатура Amorphis | Summers End гитара табулатуры уроки тексты песен Amorphis текст lyrics песня аккорды песни ноты нота электрогитара струна  
   А Б В Г Д Е Ж З И К Л М Н О П Р С Т У Ф Х Ч Ш Ы Э Ю Я       Разные песни
1-9 A B C D E F G H I J K L M N O P Q R S T U V W Y Z      Все исполнители in english

    



группа Amorphis, Табулатура песни Summers End

Продолжаем грести бабос на ботах в Telegram.
Только в этот раз есть вариант автоматизировать это дело, привлекая рефералов. Вы можете заработать если »

Группа: Amorphis - другие аккорды (26),   о группе (8 статей),   диски (7),   фотографии (20)
Табулатура песни: Summers End
Просмотров: 1083




    
Intro
e|-----------------------|
B|-----------------------|
G|---------------------9~| Play 12 times
D|-6H8--8--8--6h8-6h8----|
A|-----------------------|
D|-----------------------|
 When playing this riff 12th time, slide from 21 or 24 to 0 on A-string.

Main part
   Guitar 1                                                                                      
e|-----------------------|-----------------------|-----------------------|-----------------------|
B|-----------------------|-----------------------|-----------------------|-----------------------|
G|8--8--8--8--6--6--5--5-|-----------------------|8--8--8--8--6--6--5--5-|-----------------------|
D|8--8--8--8--6--6--5--5-|6--6--6--6--6--6--6--6-|8--8--8--8--6--6--5--5-|6--6--6--6--6--6--6--6-|
A|6--6--6--6--4--4--3--3-|6--6--6--6--6--6--6--6-|6--6--6--6--4--4--3--3-|6--6--6--6--6--6--6--6-|
D|-----------------------|6--6--6--6--6--6--6--6-|-----------------------|6--6--6--6--6--6--6--6-|
  Guitar 2
e|-----------------------|-----------------------|-----------------------|-----------------------|
B|-----------------------|-----------------------|-----------------------|-----------------------|
G|-----------------------|-----------------------|-----------------------|-----------------------|
D|8--8--8--8--8--8--8--8-|8--8--8--8--8--8--8--8-|8--8--8--8--8--8--8--8-|8--8--8--8--8--8--8--8-|
A|8--8--8--8--8--8--8--8-|8--8--8--8--8--8--8--8-|8--8--8--8--8--8--8--8-|8--8--8--8--8--8--8--8-|
D|8--8--8--8--8--8--8--8-|8--8--8--8--8--8--8--8-|8--8--8--8--8--8--8--8-|8--8--8--8--8--8--8--8-|

   Guitar 1                                                                                      
e|-----------------------|-----------------------|-----------------------|-----------------------|
B|-----------------------|-----------------------|-----------------------|-----------------------|
G|8--8--8--8--6--6--5--5-|-----------------------|8--8--8--8--6--6--5--5-|-----------------------|
D|8--8--8--8--6--6--5--5-|6--6--6--6--6--6--6--6-|8--8--8--8--6--6--5--5-|6--6--6--6--6--6--6--6-|
A|6--6--6--6--4--4--3--3-|6--6--6--6--6--6--6--6-|6--6--6--6--4--4--3--3-|6--6--6--6--6--6--6--6-|
D|-----------------------|6--6--6--6--6--6--6--6-|-----------------------|6--6--6--6--6--6--6--6-|
  Guitar 2
e|-----------------------|-----------------------|-----------------------|-----------------------|
B|-----------------------|-----------------------|-----------------------|-----------------------|
G|-----------------------|-----------------------|-----------------------|-----------------------|
D|4--4--4--4--4--4--4--4-|4--4--4--4--4--4--4--4-|4--4--4--4--4--4--4--4-|4--4--4--4--4--4--4--4-|

Продолжаем грести бабос на ботах в Telegram.
Только в этот раз есть вариант автоматизировать это дело, привлекая рефералов. Вы можете заработать если »

A|4--4--4--4--4--4--4--4-|4--4--4--4--4--4--4--4-|4--4--4--4--4--4--4--4-|4--4--4--4--4--4--4--4-| D|4--4--4--4--4--4--4--4-|4--4--4--4--4--4--4--4-|4--4--4--4--4--4--4--4-|4--4--4--4--4--4--4--4-| Guitar 1 e|-----------------------|-----------------------|-----------------------|-----------------------| B|-----------------------|-----------------------|-----------------------|-----------------------| G|8--8--8--8--6--6--5--5-|-----------------------|8--8--8--8--6--6--5--5-|-----------------------| D|8--8--8--8--6--6--5--5-|6--6--6--6--6--6--6--6-|8--8--8--8--6--6--5--5-|6--6--6--6--6--6--6--6-| A|6--6--6--6--4--4--3--3-|6--6--6--6--6--6--6--6-|6--6--6--6--4--4--3--3-|6--6--6--6--6--6--6--6-| D|-----------------------|6--6--6--6--6--6--6--6-|-----------------------|6--6--6--6--6--6--6--6-| Guitar 2 e|-----------------------|-----------------------|-----------------------|-----------------------| B|-----------------------|-----------------------|-----------------------|-----------------------| G|-----------------------|-----------------------|-----------------------|-----------------------| D|1--1--1--1--1--1--1--1-|1--1--1--1--1--1--1--1-|1--1--1--1--1--1--1--1-|6--6--6--6--6--6--6--6-| A|1--1--1--1--1--1--1--1-|1--1--1--1--1--1--1--1-|1--1--1--1--1--1--1--1-|6--6--6--6--6--6--6--6-| D|1--1--1--1--1--1--1--1-|1--1--1--1--1--1--1--1-|1--1--1--1--1--1--1--1-|6--6--6--6--6--6--6--6-| Guitar1 & Guitar2 2 times. e|-----------------------|-----------------------|-----------------------|-----------------------| B|-----------------------|-----------------------|-----------------------|-----------------------| G|12-----12----12--12----|10-----10----10--10----|-9------9-----9---9----|-7------7-----7---7----| D|12-----12----12--12----|10-----10----10--10----|-9------9-----9---9----|-7------7-----7---7----| A|10-----10----10--10----|-8------8-----8---8----|-7------7-----7---7----|-5------5-----5---5----| D|-----------------------|-----------------------|-----------------------|-----------------------| Guitar 1 & Guitar 2 e|-----------------------|-----------------------|-----------------------| B|-----------------------|-----------------------|-----------------------| G|-----------------------|-----------------------|-----------------------| D|----8----8----8----8---|3----3----3----3----5--|5--5-3-5-3-5--5--5--5--| A|----8----8----8----8---|3----3----3----3----5--|5--5-3-5-3-5--5--5--5--| D|5-7-8----8----8----8---|3----3----3----3----5--|5--5-3-5-3-5--5--5--5--|

поиск лекарств
список лекарств






О сайтеАккордыХит-парадПоискУроки ФорумыИщу песню
ПрограммыСвежачок-сПодпискаСтатьи
Яндекс.Метрика