Табулатура Amorphis | Tuonela гитара табулатуры уроки тексты песен Amorphis текст lyrics песня аккорды песни ноты нота электрогитара струна  
   А Б В Г Д Е Ж З И К Л М Н О П Р С Т У Ф Х Ч Ш Ы Э Ю Я       Разные песни
1-9 A B C D E F G H I J K L M N O P Q R S T U V W Y Z      Все исполнители in english

    



группа Amorphis, Табулатура песни Tuonela

Продолжаем грести бабос на ботах в Telegram.
Только в этот раз есть вариант автоматизировать это дело, привлекая рефералов. Вы можете заработать если »

Группа: Amorphis - другие аккорды (26),   о группе (8 статей),   диски (7),   фотографии (20)
Табулатура песни: Tuonela
Просмотров: 1081
Подобрал: Colin Attlesey (Colin Attlesey [AttleseyC@Cogeco.ca])




    
  Tomi
d|-----------------------|-----------------------|-----------------------|-----------------------|
A|-----------------------|-----------------------|-----------------------|-----------------------|
F|2----------------------|-----------------------|-----------------------|4----------------------|
G|2----------------------|2----------------------|3----------------------|4----------------------|
C|0----------------------|2----------------------|3----------------------|2----------------------|
D|-----------------------|0----------------------|1----------------------|-----------------------|
 |Esa                                                                                           |
d|-----------------------|-----------------------|-----------------------|-----------------------|
A|-----------------------|-----------------------|-----------------------|-----------------------|
F|-----------------------|-----------------------|-----------------------|9----------------------|
G|-----7---9---10--------|-----6---7---9---------|-----7---9---10--------|------10---9--10--9----|
C|7----------------------|7----------------------|8----------------------|-----------------------|
D|-----------------------|-----------------------|-----------------------|-----------------------|

  Tomi & Esa with Wah
d|0--0--0--0--0--0--0--0-|0--0--0--0--0--0--0--0-|-----------------------|-----------------------|
A|0--0--0--0--0--0--0--0-|3--3--3--3--3--3--3--3-|-----------------------|-----------------------|
F|2--2--2--2--2--2--2--2-|2--2--2--2--2--2--2--2-|5--5--5--5--5--5--5--5-|4--4--4--4--4--4--4--4-|
G|2--2--2--2--2--2--2--2-|0--0--0--0--0--0--0--0-|5--5--5--5--5--5--5--5-|4--4--4--4--4--4--4--4-|
C|0--0--0--0--0--0--0--0-|0--0--0--0--0--0--0--0-|3--3--3--3--3--3--3--3-|2--2--2--2--2--2--2--2-|
D|-----------------------|-----------------------|-----------------------|-----------------------|

  Esa
d|-----------------------|-----------------------|-----------------------|-----------------------|

Продолжаем грести бабос на ботах в Telegram.
Только в этот раз есть вариант автоматизировать это дело, привлекая рефералов. Вы можете заработать если »

A|-----------------------|-----------------------|-------17/20---15-13-12|--10-12-13------13-12--| F|14----------14/9-------|------------9----------|14---------------------|-----------------------| G|-----------------------|7h9-10-9-7----10-9-10-9|-----------------------|-----------------------| C|-----------------------|-----------------------|-----------------------|-----------------------| D|-----------------------|-----------------------|-----------------------|-----------------------| Tomi d|-----------------------|-----------------------|-----------------------|-----------------------| A|-----------------------|-----------------------|-----------------------|-----------------------| F|2--2--2--2--2--2--2--2-|-----------------------|-----------------------|4--4--4--4--4--4--4--4-| G|2--2--2--2--2--2--2--2-|2--2--2--2--2--2--2--2-|3--3--3--3--3--3--3--3-|4--4--4--4--4--4--4--4-| C|0--0--0--0--0--0--0--0-|2--2--2--2--2--2--2--2-|3--3--3--3--3--3--3--3-|2--2--2--2--2--2--2--2-| D|-----------------------|0--0--0--0--0--0--0--0-|1--1--1--1--1--1--1--1-|-----------------------| |Esa | d|-----------------------|-----------------------|-----------------------|-----------------------| A|-----------------------|-----------------------|-----------------------|-----------------------| F|-----------------------|-----------------------|-----------------------|-----------------------| G|-----7---9---10--------|-----7---9---10--------|-----6---8---9---------|-----------------------| C|7----------------------|8----------------------|7----------------------|-----------------------| D|-----------------------|-----------------------|-----------------------|-----------------------|

искать в аптеке
список лекарств






О сайтеАккордыХит-парадПоискУроки ФорумыИщу песню
ПрограммыСвежачок-сПодпискаСтатьи
Яндекс.Метрика