Табулатура Metallica | Tuesday`s Gone гитара табулатуры уроки тексты песен Metallica текст lyrics песня аккорды песни ноты нота электрогитара струна  
   А Б В Г Д Е Ж З И К Л М Н О П Р С Т У Ф Х Ч Ш Ы Э Ю Я       Разные песни
1-9 A B C D E F G H I J K L M N O P Q R S T U V W Y Z      Все исполнители in english

    



группа Metallica, Табулатура песни Tuesday`s Gone

Группа: Metallica - другие аккорды (225),   о группе (32 статей),   диски (11),   фотографии (49)
Табулатура песни: Tuesday`s Gone
Просмотров: 2682
Прислал: Forever (forever@akkords.ru)




    
Tuesday's Gone
written by Lynyrd Skynyrd
as performed by Metallica and friends on Garage Inc
tab by Phil Boyle; phil@encycmet.com

Accoustic performance;
tune all guitars down 1/2 step
1)
eb--0--0--2--3---0--0--2
Bb--2--0--2--2---2--0--3
Gb--2--1--2--3---2--1--2
Db--2--2--4--0---2--2--0
Ab--0--2--4------0--2---
Eb-----0--2---------0---
intro and verse
"Train rolls on, on down the line.  Please take me far, far away."
Rhythm is strummed following this progression

2)
guitar 1                                     guitar 2
eb-...2-2-2-2--2-2-2-2--2-2-3-2--2-2-3-2    ------------------------------
Bb-...3-3-3-3--3-3-3-3--3-3-3-3--3-3-3-3    -5-3--5-3--5-3--5-3--2-3-2-0--
Gb-...2-2-2-2--2-2-2-2--2-2-2-2--2-2-2-2    -----------------------------2
Db-...0-0-0-0--0-0-0-0--0-0-0-0--0-0-0-0    ------------------------------
Ab-...----------------------------------    ------------------------------
Eb-...----------------------------------    ------------------------------
end of verse

3)
eb--0--3--2
Узнай ВСЕ о своем друге в ВК или FB
Bb--2--0--3 Gb--2--0--2 Db--2--0--0 Ab--0--2--- Eb-----3--- chorus "Tuesday's gone with the wind" 4a) ^ ^ ^ ^ ^ ^ ^ ^ ^ eb------------------------------------------- Bb--2-3-2-0---------------------------------- Gb----------2---4-4-4-4~~-4-4-4-----4-4-4---- Db------------------------------2~~-------4~~ Ab------------------------------------------- Eb------------------------------------------- very "bendy" 4b) ^ ^ ^ ^ ^ ^ ^ ^ ^ ^ eb---------------------------------------------------- Bb-------------------------------------------2-3-2-0-- Gb------2-4-4~-4-4-4-4~~-4-4-4-----4-4-4-------------2 Db--2-4------------------------2~~-------4~~---------- Ab---------------------------------------------------- Eb---------------------------------------------------- still "bendy"

encycmet.com
искать в аптеке
список лекарств

Замена стекла на айфоне 5s

Замена стекол на iphone c дисплеем и без. Запчасти,ремонт любой сложности

ultra-repair.ru








О сайтеАккордыХит-парадПоискУроки ФорумыИщу песню
ПрограммыСвежачок-сПодпискаСтатьи
Яндекс.Метрика