Басовая табулатура Amorphis | Grails Mysteries гитара табулатуры уроки тексты песен Amorphis текст lyrics песня аккорды песни ноты нота электрогитара струна  
   А Б В Г Д Е Ж З И К Л М Н О П Р С Т У Ф Х Ч Ш Ы Э Ю Я       Разные песни
1-9 A B C D E F G H I J K L M N O P Q R S T U V W Y Z      Все исполнители in english

    



группа Amorphis, Басовая табулатура песни Grails Mysteries

Продолжаем грести бабос на ботах в Telegram.
Только в этот раз есть вариант автоматизировать это дело, привлекая рефералов. Вы можете заработать если »

Группа: Amorphis - другие аккорды (26),   о группе (8 статей),   диски (7),   фотографии (20)
Басовая табулатура песни: Grails Mysteries
Просмотров: 1290
Подобрал: Nijad Kefayeh ( dime@go.com.jo)




    
Intro
E---||----------------------------------------------------------||------
B---||----------------------------------------------------------||------
G---||*--------------------------------------------------------*||------
D---||*--7-----------------------------8-----------------------*||------
A---||---7-----------------------------8------------------------||------
E---||---5-----------------------------6------------------------||------
E-----------------------------------------------------------------------
B-----------------------------------------------------------------------
G-----------------------------------------------------------------------
D-----------------------------------------------------------------------
A-----------------------------------------------------------------------
E-----------------------------------------------------------------------
                                                     2x
E---||-------------------------------------------------||---------------
B---||-------------------------------------------------||---------------
G---||*-----------------------------------------------*||---------------
D---||*--------------2--0-----------------------2--0--*||---------------
A---||---0--0--0--0-----------------1--1--1--1---------||---------------
E---||-------------------------------------------------||---------------
E-----------------------------------------------------------------------
B-----------------------------------------------------------------------
G-----------------------------------------------------------------------
D-----------------------------------------------------------------------
A-----------------------------------------------------------------------
E-----------------------------------------------------------------------
E---||------------------------------------------------------------------
B---||------------------------------------------------------------------
G---||*-----------------------------------------------------------------
D---||*--4-----------------------------5--------------------------------
A---||---4-----------------------------5--------------------------------
E---||---2-----------------------------3--------------------------------
     2x
E----||-----------------------------------------------------------------
B----||-----------------------------------------------------------------
G---*||-----------------------------------------------------------------
D---*||-----------------------------------------------------------------
A----||-----------------------------------------------------------------
E----||-----------------------------------------------------------------
                                                         2x
E---||----------------------------------------------------||------------
B---||----------------------------------------------------||------------
G---||*--------------------------------------------------*||------------
D---||*--------------------------------------------------*||------------
A---||---------------4--2--------------------4--2---------||------------
E---||---2--2--2--2--------------3--3--3--3---------------||------------
E-----------------------------------------------------------------------
B-----------------------------------------------------------------------
G-----------------------------------------------------------------------
D-----------------------------------------------------------------------
A-----------------------------------------------------------------------
E-----------------------------------------------------------------------
E---||------------------------------------------------------------------
B---||------------------------------------------------------------------
G---||*-----------------------------------------------------------------
D---||*-----------------------------------------------------------------
A---||------------------------------------------------------------------
E---||---2-----2--2h3--2------6--6h7--6------9-----9--9h1--0--9/------
             2x
E------------||---------------------------------------------------------
B------------||---------------------------------------------------------
G-----------*||---------------------------------------------------------
D-----------*||---------------------------------------------------------
A------------||---------------------------------------------------------
E---7--7h9---||---------------------------------------------------------
E-----------------------------------------------------------------------
B-----------------------------------------------------------------------
G-----------------------------------------------------------------------
D-----------------------------------------------------------------------
A-----------------------------------------------------------------------
E-----------------------------------------------------------------------
E---||------------------------------------------------------------------
B---||------------------------------------------------------------------
G---||*-----------------------------------------------------------------
D---||*--4-----4--4h5--4------8--8h9--8------1--1-----1--1h1--2-------
A---||------------------------------------------------------------------
E---||------------------------------------------------------------------
                                    2x
E-----------------------------------||----------------------------------
B-----------------------------------||----------------------------------

Продолжаем грести бабос на ботах в Telegram.
Только в этот раз есть вариант автоматизировать это дело, привлекая рефералов. Вы можете заработать если »

G----------------------------------*||---------------------------------- D---1--1---/---9--9h1--1--9--------*||---------------------------------- A-----------------------------------||---------------------------------- E-----------------------------------||---------------------------------- E----------------------------------------------------------------------- B----------------------------------------------------------------------- G----------------------------------------------------------------------- D----------------------------------------------------------------------- A----------------------------------------------------------------------- E----------------------------------------------------------------------- E----------------------------------------------------------------------- B----------------------------------------------------------------------- G----------------------------------------------------------------------- D----------------------------------------------------------------------- A----------------------------------------------------------------------- E----------------------------------------------------------------------- 10x E---||------------------------------------------------||---------------- B---||------------------------------------------------||---------------- G---||*----------------------------------------------*||---------------- D---||*----------------------------------------------*||---------------- A---||---2--2--2--2--5--4--------2--2--2--2--5--47---||---------------- E---||---------------------2--------------------------||---------------- E---||---------------------------------------------------||------------- B---||---------------------------------------------------||------------- G---||*-------------------------------------------------*||------------- D---||*--5--5--5--5--8--7--------5--5--5--5--8--71--0--*||------------- A---||---------------------5-----------------------------||------------- E---||---------------------------------------------------||------------- E---||-------------------------------------------------------||--------- B---||-------------------------------------------------------||--------- G---||*-----------------------------------------------------*||--------- D---||*-----------------------------------------5-----------*||--------- A---||---5--5--5--5--8--7--------5--5--5--5--8-----7---------||--------- E---||---------------------5---------------------------------||--------- E----------------------------------------------------------------------- B----------------------------------------------------------------------- G----------------------------------------------------------------------- D----------------------------------------------------------------------- A----------------------------------------------------------------------- E----------------------------------------------------------------------- E----------------------------------------------------------------------- B----------------------------------------------------------------------- G----------------------------------------------------------------------- D----------------------------------------------------------------------- A----------------------------------------------------------------------- E----------------------------------------------------------------------- E---||---------------------------------------------||------------------- B---||---------------------------------------------||------------------- G---||*-------------------------------------------*||------------------- D---||*-----------5--4----8-----9--8--9--8--5-----*||------------------- A---||---2--------5--4----8-----9--8--9--8--5--2---||------------------- E---||---0--x--x--3--2---6-----7--6--7--6--3--0---||------------------- E---||---------------------------------------------------||------------- B---||---------------------------------------------------||------------- G---||*-------------------------------------------------*||------------- D---||*-------------------------------------------------*||------------- A---||---------------------------------------------------||------------- E---||---0-----0-----3--2------6-----7--6--7--6--3--0---||------------- E----------------------------------------------------------------------- B----------------------------------------------------------------------- G----------------------------------------------------------------------- D----------------------------------------------------------------------- A----------------------------------------------------------------------- E----------------------------------------------------------------------- E---||------------------------------------------------------||---------- B---||------------------------------------------------------||---------- G---||*----------------------------------------------------*||---------- D---||*--2-----2-----5--4------8-----9--8--9--8--5--2-----*||---------- A---||------------------------------------------------------||---------- E---||------------------------------------------------------||---------- E------------||--------------------------------------------------------- B------------||--------------------------------------------------------- G------------||*-------------------------------------------------------- D------------||*-------------------------------------------------------- A------------||--------------------------------------------------------- E------------||---------------------------------------------------------

искать в аптеке
список лекарств

Недорогая мебель для кухни фото и цены

Кухни и мебель для дома. Корпусная и мягкая мебель

mnogomnogomebeli.ru








О сайтеАккордыХит-парадПоискУроки ФорумыИщу песню
ПрограммыСвежачок-сПодпискаСтатьи
Яндекс.Метрика