Аккорды ДДТ | Донести синь  (2) гитара табулатуры уроки тексты песен ДДТ текст lyrics песня аккорды песни ноты нота электрогитара струна  
   А Б В Г Д Е Ж З И К Л М Н О П Р С Т У Ф Х Ч Ш Ы Э Ю Я       Разные песни
1-9 A B C D E F G H I J K L M N O P Q R S T U V W Y Z      Все исполнители in english

    



группа ДДТ, Аккорды песни Донести синь (2)

Продолжаем грести бабос на ботах в Telegram.
Только в этот раз есть вариант автоматизировать это дело, привлекая рефералов. Вы можете заработать если »

Группа: ДДТ - другие аккорды (189),   о группе (9 статей),   диски (7),   фотографии (16)
Аккорды песни: Донести синь (2)
Просмотров: 1180
Подобрал: evil (o1@inbox.ru)




    
1 ------------------------------------------------------------------------------
2 ----------------------------------------------------------------------------
3 -----------------------------------------------------------------------  
4---------5----------7-----------9-----------------------------------------
5 ------5--5-------7--7--------9--9--------------------------------------------------
6 ---3----------5-----------7-----------------------------------------------------
      припев
1 ------------------------------------------------------------------------------
2 ------------------------------------------------------------------------------

Продолжаем грести бабос на ботах в Telegram.
Только в этот раз есть вариант автоматизировать это дело, привлекая рефералов. Вы можете заработать если »

3 ------------------------------------------------------------------------ 4 -------------6------------4---------3------------------------------------- 5 -----------6---6--------4--4-------3---3-4--3-4--3---------------------------- 6 --------4------------2-----------1--------------------------------------------- самое то

найти лекарство
список лекарств






О сайтеАккордыХит-парадПоискУроки ФорумыИщу песню
ПрограммыСвежачок-сПодпискаСтатьи
Яндекс.Метрика