Табулатура Аквариум | Серебро господа моего гитара табулатуры уроки тексты песен Аквариум текст lyrics песня аккорды песни ноты нота электрогитара струна  
   А Б В Г Д Е Ж З И К Л М Н О П Р С Т У Ф Х Ч Ш Ы Э Ю Я       Разные песни
1-9 A B C D E F G H I J K L M N O P Q R S T U V W Y Z      Все исполнители in english

    



группа Аквариум, Табулатура песни Серебро господа моего

Работа в Европе для граждан РФ, Украины, СНГ

  • минимальная зарплата $500.
  • виза и контракт на полгода, возможно продление
  • проживание оплачивает работодатель
  • нужен только загранпаспорт
  • оформление 190 €
  • данное предложение - отличная возможность эмигрировать в Европу и закрепиться здесь навсегда.

  • Мы свяжемся с Вами по WhatsApp или Viber и ответим на любые вопросы.
    на нашем сайте можно почитать подробнее »

    Группа: Аквариум - другие аккорды (421),   о группе (24 статей),   диски (42),   фотографии (43)
    Табулатура песни: Серебро господа моего
    Просмотров: 5456
    Прислал: Доктор (doc_frank@rambler.ru)




        
    Серебро господа моего 
            
    ////////Для начала ставим каподастр на третий лад. Дальше играем интро (слушайте 
    запись, я снимал с "Библиотеки Вавилона":
                        
                        Двойки играются с     По сути играется     После перебора 
                        форшлагами от капо.   триолями             небольшая пауза.
    E||--7----5----3----2--2----------------|-----------------------------0--------|
    B||-------------------------------------|-----------1--------3-----------------|
    G||--7----5----4----2--2----------------|--------0-----0--------0--------0-----|
    D||-------------------------------------|-----2-----------2--------2--------2--|
    A||-------------------------------------|--0-----------------------------------|
    E||-------------------------------------|--------------------------------------|
              
                Вторую струну   Опять с                                            
                играть тихо.    форшлагами
    ------7---5-----3------------2--2-------|-----------------------------0--------|
    ------------0-----0---------------------|-----------1--------3-----------------|
    ------7-7-----5-----4--------2--2-------|--------0-----0--------0--------0-----|
    ----------------------------------------|-----2-----------2--------2--------2--|
    ----------------------------------------|--0-----------------------------------|
    ----------------------------------------|--------------------------------------|
    riff1                 И ещё одна пауза         
    -----------3--------2--------||
    --------3-----3--------------||
    -----2-----------2-----------||
    --0--------------------------||
    -----------------------------||
    -----------------------------||
    ///////////Дальше с вокалом. Переборы везде разные, но основной - шестизвучное 
    арпеджио. Иногдо идут хаммеры на первой струне на D. Аккорды здесь такие:
              Cadd9      G               Em
    Я ранен светлой стрелой - меня не излечат.
               Cadd9 G             D
    Я ранен в сердце - чего мне желать еще?
                  C       D               C         D
    Как будто бы ночь нежна, как будто бы есть еще путь -
               C  C/H  Am            D
    Старый прямой     путь нашей любви. 
    А мы все молчим, а мы все считаем и ждем,
    А мы все поем о себе - о чем же нам петь еще?
    Но словно бы что-то не так,
    Словно бы блеклы цвета,
    Словно бы нам опять не хватает Тебя...
    /////После первого риффа в припеве играем мягким боем, после второго - опять
    перебором.
                                   
                                   G              Hm
        Се-  ре- бро   Гос- по-да моего, Серебро Господа... 
    E||---------------------------||
    B||---------------------------||
    G||-------0----2----4----2--0-||
    D||--4------------------------||
    A||---------------------------||
    E||---------------------------||
              Am  C/H     C            D           Dsus4   D
    Разве я знаю      слова, чтобы сказать о тебе?
                                   G              Hm
        Се-  ре- бро   Гос- по-да моего, Серебро Господа... 
    E||---------------------------||
    B||---------------------------||
    
    Узнай ВСЕ о своем друге в ВК или FB
    G||-------0----2----4----2--0-|| D||--4------------------------|| A||---------------------------|| E||---------------------------|| G D Am C/H C D Выше слов, выше звезд, вровень с нашей тоской... ////////Проигрыш примерно такой: E||--3--------2--------3--------2--------| B||-----0--------0--------0--------0-----| G||--------0--------0--------0--------0--| D||--2--------2--------2--------2--------| A||--------------------------------------| E||--------------------------------------| --0-----------------0------------------||--3--------2--------3--------2--------| -----------1-----------------1---------||-----0--------0--------0--------0-----| -----0--------0--------0--------0-----*||--------0--------0--------0--------0--| --------2--------2--------2--------2--*||--2--------2--------2--------2--------| --3------------------------------------||--------------------------------------| ---------------------------------------||--------------------------------------| --------------------------------------|-----------------------------2--------| --------------------------------------|-----------1--------------3-----3-----| --------0--------0--------0--------0--|--------0-----0--------2-----------2--| -----2--------2--------2--------2-----|-----2-----------2--0-----------------| --3--------2--------0--------2--------|--3-----------------------------------| --------------------------------------|--------------------------------------| --3----------------|| --3----------------|| -------------------|| -------------------|| -------------------|| -------------------|| И как деревенский кузнец, я выйду засветло. Туда, куда я - за мной не уйдет никто. И может быть, я был слеп, И может быть, это не так, Но я знаю, что ждет перед самым концом пути. Серебро Господа моего, Серебро Господа... Ну разве я знаю слова, чтобы сказать о тебе? Серебро Господа моего, Серебро Господа... Выше слов, выше звезд, вровень с нашей тоской... //////Кода: E||--3--------2--------3--------2--------| B||-----0--------0--------0--------0-----| G||--------0--------0--------0--------0--| D||--2--------2--------2--------2--------| A||--------------------------------------| E||--------------------------------------| Арпеджио --0--------0--------0--------0--------|--2--------3--------3--------|| -----1--------1--------1--------1-----|-----3--------3-----0--------|| --------0--------0--------0--------0--|--------2--------2--0--------|| --------------------------------------|--0--------0--------0--------|| --3--------2--------0--------2--------|--------------------2--------|| --------------------------------------|--------------------3--------||

    найти лекарство
    список лекарств






    О сайтеАккордыХит-парадПоискУроки ФорумыИщу песню
    ПрограммыСвежачок-сПодпискаСтатьи
    Яндекс.Метрика