Табулатура Staind | Raw гитара табулатуры уроки тексты песен Staind текст lyrics песня аккорды песни ноты нота электрогитара струна  
   А Б В Г Д Е Ж З И К Л М Н О П Р С Т У Ф Х Ч Ш Ы Э Ю Я       Разные песни
1-9 A B C D E F G H I J K L M N O P Q R S T U V W Y Z      Все исполнители

    



группа Staind, Табулатура песни Raw

Группа: Staind - другие аккорды (17),   о группе (8 статей),   диски (4),   фотографии (17)
Табулатура песни: Raw
Просмотров: 817
Прислал: EjiK (s_ejov@mail.ru)




    
TUNING: tune your guitar down half a step and then
drop d (Db,Ab,Db,Gb,Bb,Eb)

INTRO: (use palm muting where necessary)
Eb|------------------------------------|
Bb|-------------------------------5^6--|
Gb|---------------------------4^5------|
Db|------0-0-----0-----0-0-0-----------|
Ab|--0^1-0-0-0^1-0-0^1-0-0-0-----------|
Db|--0^1-0-0-0^1-0-0^1-0-0-0-----------|
VERSE:               
                                
Eb|---------------------------------------------------|
Bb|---------------------------------------------------|
Gb|------------------------------0----0-------0----0--|
Db|-----7---7-------7----7----------------------------|
Ab|---------------------------------------------------|
Db|---4---4---4---5----5---5---1----1---1---1---1-----|
        
CHORUS: (gtr 1)
Eb|--------------------------------------|
Bb|--9-----------------------------------|
Gb|--11-(bend to sound ONE step higher)--|
Db|--------------------------------------|
Ab|--------------------------------------|

Продолжаем грести бабос на ботах в Telegram.
Только в этот раз есть вариант автоматизировать это дело, привлекая рефералов. Вы можете заработать если »

Db|--------------------------------------| CHORUS: (gtr 2) Eb|--------------------|--------------| Bb|--------------------|--------------| Gb|--------------------|--------------| Db|--5----6------------|--------3-----| Ab|--3----4------------|--end:--1-----| Db|--3----3------------|--------1-----| BRIDGE PART 1: (whammy pedal makes it sound one octave lower) Eb|---------------------------------------------------------| Bb|---------------------------------------------------------| Gb|---------------------------------------------------------| Db|---------------------------------------------------------| Ab|---------------------------------------------------------| Db|--7-7-7-8-8-8-7-7-7-8-8-8-7-7-7-8-8-8-12-11-12-11-12-11--| BRIDGE PART 2: (whammy pedal makes it sound one octave lower) Eb|---------------------------------------------------------| Bb|---------------------------------------------------------| Gb|---------------------------------------------------------| Db|---------------------------------------------------------| Ab|--------------------------------12--11-12--11-12--11--| Db|--7-8-7-8-7-8-7-8-7-8-7-7-8-7-8-12--11-12--11-12--11--|








О сайтеАккордыХит-парадПоискУроки ФорумыИщу песню
ПрограммыСвежачок-сПодпискаСтатьи
Яндекс.Метрика