Табулатура Staind | Outside гитара табулатуры уроки тексты песен Staind текст lyrics песня аккорды песни ноты нота электрогитара струна  
   А Б В Г Д Е Ж З И К Л М Н О П Р С Т У Ф Х Ч Ш Ы Э Ю Я       Разные песни
1-9 A B C D E F G H I J K L M N O P Q R S T U V W Y Z      Все исполнители

    



группа Staind, Табулатура песни Outside

Группа: Staind - другие аккорды (17),   о группе (8 статей),   диски (4),   фотографии (17)
Табулатура песни: Outside
Просмотров: 1184
Прислал: EjiK (s_ejov@mail.ru)




    
JUST REMEMBER TO TIME IT RIGHT, IT SHOULD WORK FINE
intro/verse
aaron-    E5,D5,G5,A5 6 times
mike-five times
B-12---12----13-12---10----10---12-10-----------
G-----9----9-------9----7-----7-------7----------
D-----------------------------------------------
A-----------------------------------------------
D-----------------------------------------------
A-----------------------------------------------
B--8--8--10-8-----12-8----------------------------
G----7-------7--------------11/12----------------
D----------------------9/10----------------------
A-------------------------------------------------
D------------------------------------------------
A---------------------------------------------------------
chorus
aaron-E5,G,D,A5 times 2
mike- times 2
B---------------------3--0--1-----------------1-0------
G-------------7-7---------------------------------2-0-
D-2-2-2-2-2---7-7--------------------7-7--------------
A-2-2-2-2-2---5-5--------------------7-7--------------
D-2-2-2-2-2---5-5-----------7-7-7-7--7-7--------------
A---------------------------5-5-5-5-------------------
post chorus- 
aaron- E5, D5, G5, A5
mike
B---------------------------------------------------------
G----------------------------------------------------
D-2-2-2-2-----------5-5-5-5--7-7-7-7----------------
A-2-2-2-2--7-7-7-7--5-5-5-5--7-7-7-7----------------
D-2-2-2-2--7-7-7-7--5-5-5-5--7-7-7-7-----------------
A----------5-5-5-5-----------------------------------

Продолжаем грести бабос на ботах в Telegram.
Только в этот раз есть вариант автоматизировать это дело, привлекая рефералов. Вы можете заработать если »

2nd verse times 4 mike and aaron chorus aaron-verse-5 times mike interlude/3rd verse times 3 B-9-9-9-7-9-10-3--5-6-5--8-8-8-7-8-10------------ G-x-x-x-x-x-x--x--x-x-x--x-x-x-x-x--x------------ D-6-6-6-4-6-7--0--2/42--5-5-5-4-5--7------------ A------------------------------------------------ D------------------------------------------------ A---------------------------------------------- B-9-9-9-7-9-10-3--3--0--1--------1-0-------------- G-x-x-x-x-x--x--x-----------------------2-0------- D-6-6-6-4-6--7--0-------------------------------- A------------------------------------------------- D------------------------------------------------ A------------------------------------------------ B-12----12----13-12-----10---10---12-10----------- G-----9----9---------9------7-----7----------7-- D------------------------------------------------- A------------------------------------------------- D------------------------------------------------- A------------------------------------------------- B-8-----8-10-8-----12-10---------------------------- G----7------------7----------------11/12----------- D-----------------------------9/10----------------- A-------------------------------------------------- D------------------------------------------------- A------------------------------------------------- chorus aaron-E5,G,D,A5 times 2 (alone)




Error: Incorrect password!




О сайтеАккордыХит-парадПоискУроки ФорумыИщу песню
ПрограммыСвежачок-сПодпискаСтатьи
Яндекс.Метрика