Табулатура Staind | Me гитара табулатуры уроки тексты песен Staind текст lyrics песня аккорды песни ноты нота электрогитара струна  
   А Б В Г Д Е Ж З И К Л М Н О П Р С Т У Ф Х Ч Ш Ы Э Ю Я       Разные песни
1-9 A B C D E F G H I J K L M N O P Q R S T U V W Y Z      Все исполнители

    



группа Staind, Табулатура песни Me

Группа: Staind - другие аккорды (17),   о группе (8 статей),   диски (4),   фотографии (17)
Табулатура песни: Me
Просмотров: 912
Прислал: EjiK (s_ejov@mail.ru)




    
TUNING: tune your guitar low to high (Ab,Db,Ab,Db,Gb,Bb)

        p = Pull Off
         = Slide Down
        / = Slide Up

     OPENING:
				
     Clean Sound
     1st Guitar
   Bb|----------------------------------------------|
   Gb|----------------------------------------------|
   Db|---------4--------4--------------4----4p3-----|
   Ab|----3-3-----3-3-----3-3-----3-----3-----------|
   Db|----3-3-----3-3-----3-3-----3-----3-----------|
   Ab|----------------------------------------------|
     *  Palm Mute the 3rd fret on the D and A strings.
     2nd Guitar 
                                                          
   Bb|-----------------------|
   Gb|----------------3------|
   Db|-----2-----4-----------|
   Ab|-----------------------|              
   Db|-----------------------|
   Ab|-----------------------|
    *   Let these notes ring
     End of Opening
     Distortion On
   Bb|------------------------|
   Gb|------------------------|
   Db|----10------------------|
   Ab|----8-------------------|              
   Db|----8-------------------|
   Ab|------------------------|
    *   Let Ring!

     VERSE RIFF:
     Repeat this twice. 
     Clean Sound.
     Then switch to opening riff, but end with verse riff
     with distortion on.
                                                      
   Bb|----6--------------------------|		
   Gb|------5------------------------|		
   Db|--------3----------------------|		
   Ab|-------------------------------|		
   Db|-------------------------------|		
   Ab|-------------------------------|		
     END OF VERSE RIFF:
   Bb|---/6--------------------|
   Gb|-------5-----------------|

Продолжаем грести бабос на ботах в Telegram.
Только в этот раз есть вариант автоматизировать это дело, привлекая рефералов. Вы можете заработать если »

Db|----------32------------| Ab|-------------------------| Db|-------------------------| Ab|-------------------------| CHORUS RIFF: Distortion on. or 3rd!!!!!!! Bb|----------------------------------| Gb|----5-5---5-5---------------------| Db|----5-5---5-5---7-7---------------| Ab|----3-3---5-5---5-5---5-5---------| Db|----3-3---0-0---5-5---7-7---------| Ab|-------------------------5-5------| Play this at the end of 1st chorus, but not at the end of the second or third. Bb|----------------| Gb|----------------| Db|----10----------| Ab|----10----------| Db|-----8----------| Ab|----------------| Verse Riff See above. Chorus Riff See above. BREAKDOWN PART: The part where Aaron sing's, "If you push me, then I won't fall..." Clean sound. Bb|-------------0----12----------------1--------------1--------| Gb|---------------12-------5--------------0--------------0-----| Db|-----9---------------0-------------3------------3-----------| Ab|---------0--------------------------------------------------| Db|-7----------------------------------------------------------| Ab|------------------------------------------------------------| * To end the Breakdown just do the last 4 notes slower and add 1 more note. Bb|---------1----------------| Gb|-------------0------------| Db|----3------------3--------| Ab|--------------------------| Db|--------------------------| Ab|--------------------------| Chorus Riff See above. End the song with the opening Riff and that's it!








О сайтеАккордыХит-парадПоискУроки ФорумыИщу песню
ПрограммыСвежачок-сПодпискаСтатьи
Яндекс.Метрика