Табулатура Staind | Home гитара табулатуры уроки тексты песен Staind текст lyrics песня аккорды песни ноты нота электрогитара струна  
   А Б В Г Д Е Ж З И К Л М Н О П Р С Т У Ф Х Ч Ш Ы Э Ю Я       Разные песни
1-9 A B C D E F G H I J K L M N O P Q R S T U V W Y Z      Все исполнители

    



группа Staind, Табулатура песни Home

Группа: Staind - другие аккорды (17),   о группе (8 статей),   диски (4),   фотографии (17)
Табулатура песни: Home
Просмотров: 974
Прислал: EjiK (s_ejov@mail.ru)




    
TUNING: tune down as follow (Ab-Db-Ab-Db-Gb-Bb)

INTRO: (distortion)
 
Bb|-2h3h2---------------------------------|
Gb|-0-------------------------------------| 
Db|-0----------9-----9--------------------| 
Ab|------------9h10--9--0------10h12-10---| 
Db|---------0--9-----9--0--12--10h12-10---| 
Ab|------------------------10-------------|
end with
|----------------| 
|----------------|
|-9--------------|
|-9h10p9---------|
|-9------------2-|
|--------10-9--0-|
VERSE:
 
Slightly distorted. Roll back the volume control
on your guitar to get this distortion, but keep
the gain up on your amp.
 
Bb|----------6--8~------------------| 
Gb|-----------------14--12--14~-----| 
Db|-0--3----------------------------| 
Ab|-0----2--------------------------| 
Db|-0-------------------------------| 
Ab|---------------------------------| 
CHORUS: (distortion)
 

Продолжаем грести бабос на ботах в Telegram.
Только в этот раз есть вариант автоматизировать это дело, привлекая рефералов. Вы можете заработать если »

Bb|----------------------------| Gb|-7-7--7-7--3-3-3---4--------| Db|-7-7--7-7--2-2-2---4--------| Ab|-5-5--5-5--0-0-0---2--------| Db|-5-5--5-5--0-0-0---2--------| Ab|----------------------------| bend the F note up a half step then release.(fourth fret on the Db string) MIDLLE SECTION: (same clean sound as used in the verse) Bb|--------------------------------------| Gb|-------0----------0-----0--------3~---| Db|-----4---4-------4-----4-4------0-----| Ab|----0-----0----0------0---0----0------| repeat twice Db|---0-------0--0------0-----0--2-------| Ab|--3----------3------3-----------------| HEAVY PART: (distortion) Bb|--------------------------------------| Gb|--------------------------------------| Db|-------------0----------------0-------| Ab|-------------0----------------0-------| repeat Db|--5-5--5-5---0--/3--5-5--5-5--0--/3---| Ab|--3-3--3-3----------3-3--3-3----------| * *








О сайтеАккордыХит-парадПоискУроки ФорумыИщу песню
ПрограммыСвежачок-сПодпискаСтатьи
Яндекс.Метрика