Табулатура Staind | Just Go гитара табулатуры уроки тексты песен Staind текст lyrics песня аккорды песни ноты нота электрогитара струна  
   А Б В Г Д Е Ж З И К Л М Н О П Р С Т У Ф Х Ч Ш Ы Э Ю Я       Разные песни
1-9 A B C D E F G H I J K L M N O P Q R S T U V W Y Z      Все исполнители

    



группа Staind, Табулатура песни Just Go

Группа: Staind - другие аккорды (17),   о группе (8 статей),   диски (4),   фотографии (17)
Табулатура песни: Just Go
Просмотров: 505
Прислал: EjiK (s_ejov@mail.ru)




    
TUNING: half step down and then drop d (Db-Ab-Db-Gb-Bb-Eb)

INTRO: (clean tone with reverb, delay, chorus)
 
Eb|--------------------------------------------------------------| 
Bb|--------------------------------------------------------------| 
Gb|--------------------------------------------------------------| 
Db|--3-------------------------------3---------------------------| 
Ab|----3---0--3h5-5-0-----------------3---0--3h5-5-0-------------| 
Db|------0--------3h5-5-5-5p3-3p0-------0-------------3h5-5-5-5p3| 
CHORUS RIFF: (distortion with no effects)
Eb|-------------------------------------------------------------| 
Bb|-------------------------------------------------------------| 
Gb|-------------------------------------------------------------| 
Db|-3------------0-------------------3-----------0--------------| 
Ab|---3--0-3h5-5-0--3h5-5-5-5p3-3p0---3--0-3h5-5-0-3h5-5-5-5p3--| 
Db|----0---------0--3h5-5-5-5p3-3p0----0---------0-3h5-5-5-5p3--| 
VERSE RIFF: (clean tone with reverb, delay, chorus) 
Eb|---------------------------------------------| 
Bb|---------------------------------------------| 
Gb|---------------------------------------------| 
Db|---------------------------------------------| 
Ab|--8------ play seven time then---8-----------|repeat throughout 
Db|----10--0-0------------------------10-9------|verse 
           * * 
BREAKDOWN:
Use distortion on the D chord then change to clean tone 
Eb|-------------------------------------------------------------| 
Bb|-------------------------------------------------------------| 
Gb|-------------------------------------------------------------| 
Db|--1------just ad lib weird sounding guitar-------------------| 
Ab|--1------with clean tone when Aaron is singing here----------| 
Db|--1------these chords are too fucked for me to figure out----| 
     ^ 
Dchord 
BREAKDOWN PART 2: (distortion)
Make sure to let the palm muted chords ring for a second

Продолжаем грести бабос на ботах в Telegram.
Только в этот раз есть вариант автоматизировать это дело, привлекая рефералов. Вы можете заработать если »

Eb|--------------------------------------------------------| Bb|--------------------------------------------------------| Gb|--------------------------------------------------------| Db|--0-2-0-2-0-2-0-1------play this riff until-------------| Ab|--0-2-0-2-0-2-0-1------the song changes to the chorus---| Db|--0-2-0-2-0-2-0-1---------------------------------------| * * * OUTRO: (distortion) Eb|-------------------------| Bb|-------------------------| Gb|-------------------------| then whenever Aaron says "lies!" Db|--0---3---0---3---0---3--| hit the open D flat chord. Ab|--0---3---0---3---0---3--| Db|--0---3---0---3---0---3--| * = palm mute h = hammer on p = pulloff To match Mike's tone use your bridge humbucker, lots of gain(distortion) but not too much, also make your eq have bass around 8, mids around 4 or 5, and highs around 2 or three. That should give your the low end sound he gets on this song.








О сайтеАккордыХит-парадПоискУроки ФорумыИщу песню
ПрограммыСвежачок-сПодпискаСтатьи
Яндекс.Метрика