Табулатура Staind | A Flat гитара табулатуры уроки тексты песен Staind текст lyrics песня аккорды песни ноты нота электрогитара струна  
   А Б В Г Д Е Ж З И К Л М Н О П Р С Т У Ф Х Ч Ш Ы Э Ю Я       Разные песни
1-9 A B C D E F G H I J K L M N O P Q R S T U V W Y Z      Все исполнители

    



группа Staind, Табулатура песни A Flat

Группа: Staind - другие аккорды (17),   о группе (8 статей),   диски (4),   фотографии (17)
Табулатура песни: A Flat
Просмотров: 703




    
Drop D Tuning
p - pull off
 - slide down
/ - slide up
Riff 1
--------------------------------|--------------------------------|
--------------------------------|--------------------------------|
--------------------------------|--------------------------------|
--------------------------------|--------------------------------|
-5-------5-------5-------5----6-|-5-------5-------5-------5----6-|
--------------------------------|---6-0-0---6-0-0---6-0-0--------|
                                |  guitar transcribed for bass   |
Riff 2
----------------------------------|
----------------------------------|
----------------------------------|
----------------------------------|
-7-7-7-7-7-7/8----0-0-0-0-3h5-6h5-|
-7-7-7-7-7-7/8----0-0-0-0-3h5-6h5-|
                  - - - -         |palm muting
Riff 3
-------------------------------------------------|
-------------------------------------------------|
-------------------------------------------------|
-------------------------------------------------|
-3/5-0-3/5-0-3/5-0-3/5-0-3/5-0-3/5----8-8-8-8/10-|
-3/5-0-3/5-0-3/5-0-3/5-0-3/5-0-3/5----8-8-8-8/10-|
     -     -     -     -     -                   |palm muting
Riff 4
------------------|------------------|
------------------|------------------|
------------------|------------------|
-----------7------|-----------5------|
------4-----------|------3-----------|
-7----------------|-5----------------|

Продолжаем грести бабос на ботах в Telegram.
Только в этот раз есть вариант автоматизировать это дело, привлекая рефералов. Вы можете заработать если »

Riff 5 -------------------|------------------| -------------------|------------------| -------------------|------------------| -------------------|------------------| -------------------|-6p5--------------| -6p3---5p3-0-0-0-0-|-----0-0--6p5-0-0-| - - - - - - - - |palm muting Riff 6 -------------------|-----------------| -------------------|-----------------| -------------------|-----------------| -------------------|-6p5-------------| -6p3---5p3-0-0-0-0-|-4p3-0-0-6p5-0-0-| -6p3---5p3-0-0-0-0-|-----0-0-6p5-0-0-| - - - - - - - - |palm muting Song Structure: Riff 1 Riff 2 Riff 3 Riff 2 Riff 3 Riff 4 Riff 5 Riff 6 Riff 2 Riff 3 Riff 2 Riff 3








О сайтеАккордыХит-парадПоискУроки ФорумыИщу песню
ПрограммыСвежачок-сПодпискаСтатьи
Яндекс.Метрика