Табулатура Staind | For You гитара табулатуры уроки тексты песен Staind текст lyrics песня аккорды песни ноты нота электрогитара струна  
   А Б В Г Д Е Ж З И К Л М Н О П Р С Т У Ф Х Ч Ш Ы Э Ю Я       Разные песни
1-9 A B C D E F G H I J K L M N O P Q R S T U V W Y Z      Все исполнители

    



группа Staind, Табулатура песни For You

Группа: Staind - другие аккорды (17),   о группе (8 статей),   диски (4),   фотографии (17)
Табулатура песни: For You
Просмотров: 1052
Подобрал: неизвестно




    
For You
TUNING- A/D/A/D/G/B/ ALL FLAT 
I DIDNT TAB OUT HOW MANY TIMES TO PLAY
EACH PART OR THE RYTHYM, BY THE WAY I KNOW
THERE IS ONLY 1 GUITARIST IN STAIND BUT THERE
IS A THING CALLED LAYERING
INTRO/VERSES/OUTRO 
6------------------------------------
5------------------------------------
4--2-4-X-X--2-4-X-X--2-4-X-X--2-4-4-4
3--2-4-X-X--2-4-X-X--2-4-X-X--2-4-4-4
2--2-4-X-X--2-4-X-X--2-4-X-X--2-4-4-4
1------------------------------------
pm      ..     ...     ....     ......
6-------------------------------------
5------------------------------------
4--2-4-X-X--2-4-X-X--2-4-X-X--2-4-5-4
3--2-4-X-X--2-4-X-X--2-4-X-X--2-4-5-4
2--2-4-X-X--2-4-X-X--2-4-X-X--2-4-5-4
1------------------------------------
pm     ...     ....      ...    ....
CHORUS- i hear 2 guitars in there doing the same
notes and an octave apart
gtr-1
6------------------------------------
5------------------------------------
4--4-4-4-4-4//2-2-2-2-2\6-6-6-7-7
3--4-4-4-4-4//2-2-2-2-2\6-6-6-7-7
2--4-4-4-4-4//2-2-2-2-2\6-6-6-7-7
1-----------------------------------
gtr-2
6----------------------------------
5--6-6-6-6-6//2-2-2-2-2\8-9-8//4-6
4--4-4-4-4-4//2-2-2-2-2\6-7-6//2-4
3----------------------------------
2-----------------------------------
1-----------------------------------

Продолжаем грести бабос на ботах в Telegram.
Только в этот раз есть вариант автоматизировать это дело, привлекая рефералов. Вы можете заработать если »

VERSE, CHORUS INTERLUDE-wah as filter in bass position 6---------------------------- 5---------------------------- 4--4-4-4-4-4--4-4-4-4-4------ 3---------------------------- 2---------------------------- 1---------------------------- THEN 6---------------------------- 5---------------------------- 4--4-4-4-4-4--4-4-4-4-4------ 3--4------------------------- 2--4------------------------- 1---------------------------- THEN 6---------------------------- 5---------------------------- 4--4-4-4-4-4--4-4-4-4-4------ 3--4-4----------------------- 2--4-4---------------------- 1--------------------------- THEN 6---------------------------- 5--------------------------- 4--0-4-0-4-0-4-0-4-2-4------ 3--0-4-0-4-0-4-0-4-2-4------ 2--0-4-0-4-0-4-0-4-2-4------ 1--------------------------- CHORUS TWICE THEN OUTRO








О сайтеАккордыХит-парадПоискУроки ФорумыИщу песню
ПрограммыСвежачок-сПодпискаСтатьи
Яндекс.Метрика