Басовая табулатура Metallica | Turn The Page гитара табулатуры уроки тексты песен Metallica текст lyrics песня аккорды песни ноты нота электрогитара струна  
   А Б В Г Д Е Ж З И К Л М Н О П Р С Т У Ф Х Ч Ш Ы Э Ю Я       Разные песни
1-9 A B C D E F G H I J K L M N O P Q R S T U V W Y Z      Все исполнители in english

    



группа Metallica, Басовая табулатура песни Turn The Page

Продолжаем грести бабос на ботах в Telegram.
Только в этот раз есть вариант автоматизировать это дело, привлекая рефералов. Вы можете заработать если »

Группа: Metallica - другие аккорды (225),   о группе (32 статей),   диски (11),   фотографии (49)
Басовая табулатура песни: Turn The Page
Просмотров: 2083
Прислал: Forever (forever@akkords.ru)




    
Turn The Page
Bass Tab

 Tabbed by Chris "MuSiC"
(chrisg_golf@hotmail.com)

* hR=half note rest  qR=quarter note rest  eR=eighth note rest *

~~~~~~~~~~~~~~~~~~~~~~~~~~~~~~~~~~~~~~~~~~~~~~~~~~~~~~~~~~~~~~~~~~~~~~~~
-tune guitar down 1/2 step

             (verse riff)
 (soft)      (R1)   (end R1)             
|------------|-------------|---------|-------------|-------------|
|------------|-------------|-play-R1-|-------------|-------------|
|------------|--7----------|---5x----|--7-------7--|--5-------5--|
|---------0--|----------0--|---------|-------------|-------------|

hR,qR,eR  |)    | |     |)              | |     |)    | |     |)
          /     0-/.    /               o-/.    /     o-/.    /

                                                     (end verse-riff)
|-------------|-------------|-------------|-------------|-----------|
|-------------|-------------|-------------|-------------|-----------|
|--5-------5--|--0-------0--|--0-------0--|----------7--|-----------|
|-------------|-------------|-------------|--0----------|--0--------|

   | |     |)    | |     |)    | |     |)    | |     |)    
   o-/.    /     o-/.    /     o-/.    /     o-/.    /     o

 (R2)
|------------|------------|------------|------------|------------|
|------------|------------|------------|------------|------------|
|------------|------------|--5---5--5--|--5---5--5--|--0---0--0--|
|--0---0--0--|--0---0--0--|------------|------------|------------|

   |   |) |     |   |) |     |   |) |     |   |) |     |   |) |
   /.  /  o     /.  /  o     /.  /  o     /.  /  o     /.  /  o

           (end R2)      
|------------------||-------------------||
|------------------||o-----------------o||

Продолжаем грести бабос на ботах в Telegram.
Только в этот раз есть вариант автоматизировать это дело, привлекая рефералов. Вы можете заработать если »

|--0---0--0---5h7--||o-----7------7-7--o|| |------------------||---0------0--------|| _ _ | |) | |-| | | |) | | /. / /. / / / /. / / / (w. chorus) |---------------|---------------|----------| |---------------|---------------|--repeat--| |--5--5---5--5--|---------------|--last-2--| |---------------|--0--0---0--0--|-measures-| | | |) | | | |) | / /. / / / /. / / (end chorus) (R3) (end R3) |---------------|---------------|--------------||-------------------|| |---------------|---------------|--------------||o-----------------o|| |--5--5---5--5--|--0--0---0--0--|--3--3--5--5--||o-----7------7-7--o|| |---------------|---------------|--------------||---0------0--------|| _ | | |) | | | |) | | | | | | | |) | | / /. / / / /. / / / / / / / /. / / / |---------|--------|-----------|---------||-----------------|| |-play-R2-|-chorus-|--play-R3--|-play-R2-||o---------------o|| |---2x----|--riff--|-w/-repeat-|---1x----||o-----7------0--o|| |---------|--------|-----------|---------||---0------0------|| | | |) | / /. / / (w/ solo) |------|---------|--------|--------|-----------|repeat last measure of |-play-|---------|-chorus-|-chorus-|--play-R3--|the chorus w/ R3 till |--R2--|---------|---2x---|--riff--|-w/-repeat-|the end of the song. |------|--0------|--------|--------|-----------| o

поиск лекарств
список лекарств






О сайтеАккордыХит-парадПоискУроки ФорумыИщу песню
ПрограммыСвежачок-сПодпискаСтатьи
Яндекс.Метрика