Табулатура Nightwish | Wishmaster гитара табулатуры уроки тексты песен Nightwish текст lyrics песня аккорды песни ноты нота электрогитара струна  
   А Б В Г Д Е Ж З И К Л М Н О П Р С Т У Ф Х Ч Ш Ы Э Ю Я       Разные песни
1-9 A B C D E F G H I J K L M N O P Q R S T U V W Y Z      Все исполнители in english

    



группа Nightwish, Табулатура песни Wishmaster

Работа в Европе для граждан РФ, Украины, СНГ

  • минимальная зарплата $500.
  • виза и контракт на полгода, возможно продление
  • проживание оплачивает работодатель
  • нужен только загранпаспорт
  • оформление 190 €
  • данное предложение - отличная возможность эмигрировать в Европу и закрепиться здесь навсегда.

  • Мы свяжемся с Вами по WhatsApp или Viber и ответим на любые вопросы.
    на нашем сайте можно почитать подробнее »

    Группа: Nightwish - другие аккорды (414),   о группе (12 статей),   диски (6),   фотографии (25)
    Табулатура песни: Wishmaster
    Просмотров: 2013
    Подобрал: Forever (forever@akkords.ru)




        
                                      Wishmaster                                    
    
    Distortion guitr
                                                                      
    E||--------------------|--------------------|--------------------|
    B||--------------------|--------------------|--------------------|
    G||--------------------|--------------------|--------------------|
    D||----------5----5----|----------3----3----|------5----5--------|
    A||----------3----3----|----------1----1----|------3----3--------|
    E||--------------------|--------------------|--------------------|
    
                                                                    
    ---------------------|--------------------|--------------------|
    ---------------------|--------------------|--------------------|
    -----------3---------|--------------------|--------------------|
    -----------1----3----|------5----5--------|--------3----3------|
    --6-------------1----|------3----3--------|--------1----1------|
    --4------------------|--------------------|--------------------|
    
                                                                             
    ---------------------|-----------------------|--------------------------|
    ---------------------|-----------------------|--------------------------|
    ---------------------|--------3--------------|--------------------------|
    ----5----5-----------|--------1-----3--------|-----------------6--------|
    ----3----3--------6--|--------------1--------|-----------------4--------|
    ------------------4--|-------------------1-1-|---1-1-1-1-1-1-1------1-1-|
    
                                                                               
    --------------------------|------------------------|----------------------|
    --------------------------|------------------------|----------------------|
    -----------------3--------|------------------------|----------------------|
    -----------------1--------|-----------------6------|--------3----1--------|
    --------------------------|-----------------4------|--------1-------------|
    ---1-1-1-1-1-1-1------1-1-|---1-1-1-1-1-1-1--------|------------------1-1-|
    
                                                                                   
    --------------------------|-------------------------|-------------------------|
    --------------------------|-------------------------|-------------------------|
    --------------------------|-----------3----5--------|-------------------------|
    -----------------6--------|-----------1----3--------|-----------------6----6--|
    -----------------4--------|-------------------------|-----------------4----4--|
    ---1-1-1-1-1-1-1------1-1-|---1-1-1-1-----------1-1-|---1-1-1-1-1-1-1---------|
    
                                                                                    
    -----------------------|---------------------------|---------------------------|
    -----------------------|---------------------------|---------------------------|
    -----------------------|---------------------------|-----------3---------------|
    ----6----3----5----5---|-----5-----6-----5-6-3-5---|---------------6---5-3-5---|
    ----4----1----3------3-|---3---3-3---3-3---------3-|---3-3-3-3---------------3-|
    -----------------------|---------------------------|---------------------------|
    
                                                            
    ---------------------------|---------------------------|
    ---------------------------|---------------------------|
    ---------------------------|---------------------------|
    -----5-----6-----5-6-3-5---|-----------6---6---8---5---|
    ---3---3-3---3-3---------3-|---3-3-3-3-4---4---6-----3-|
    ---------------------------|---------------------------|
    
                                                            
    ---------------------------|---------------------------|
    ---------------------------|---------------------------|
    ---------------------------|-----------3---------------|
    -----5-----6-----5-6-3-5---|---------------6---5-3-5---|
    ---3---3-3---3-3---------3-|---3-3-3-3---------------3-|
    ---------------------------|---------------------------|
    
                                                            
    ---------------------------|---------------------------|
    ---------------------------|---------------------------|
    ---------------------------|---------------------------|
    -----5-----6-----5-6-3-5---|-----------6---6---8---5---|
    ---3---3-3---3-3---------3-|---3-3-3-3-4---4---6-----3-|
    ---------------------------|---------------------------|
    
                                                            
    ---------------------------|---------------------------|
    ---------------------------|---------------------------|
    ---------------------------|-----------3---------------|
    -----5-----6-----5-6-3-5---|---------------6---5-3-5---|
    ---3---3-3---3-3---------3-|---3-3-3-3---------------3-|
    ---------------------------|---------------------------|
    
                                                           
    ---------------------------|--------------------------|
    ---------------------------|--------------------------|
    ---------------------------|--------------------------|
    -----5-----6-----5-6-3-5---|-----------6---6---8------|
    ---3---3-3---3-3---------3-|---3-3-3-3-4---4---6---3--|
    ---------------------------|-----------------------1--|
    
                                                                                   
    --------------------------|------------------------|--------------------------|
    --------------------------|------------------------|--------------------------|
    --------------------------|------------------------|--------------------------|
    --------------------------|------------------------|--------------------------|
    -----------3-----------3--|-----------6----1----3--|-----------3-----------3--|
    ---1-1-1-1-1---1-1-1-1-1--|---1-1-1-1-4---------1--|---1-1-1-1-1---1-1-1-1-1--|
    
                                                                                
    -----------------------|--------------------------|------------------------|
    -----------------------|--------------------------|------------------------|
    --------3--3-----------|--------------------------|------------------------|
    --------1--1-----------|--------------------------|------------------------|
    --------------------3--|-----------3-----------3--|-----------6----1----3--|
    ---1-1--------------1--|---1-1-1-1-1---1-1-1-1-1--|---1-1-1-1-4---------1--|
    
                                                                        
    -------------------|--------------------|--------------------------|
    -------------------|--------------------|--------------------------|
    -------------------|--------3-----------|--------------------------|
    ----------------3--|--------1-----------|--------------------------|
    ----------------1--|-----------------3--|-----------3-----------3--|
    -------------------|-----------------1--|---1-1-1-1-1---1-1-1-1-1--|
    
                                                                                  
    -------------------------|---------------------------|-----------------------|
    -------------------------|---------------------------|-----------4-----------|
    -------------------------|---------------------------|-----------------------|
    -------------------------|---------------------------|-----------------------|
    -----------6----1----3---|-----3-----4-----3-4-1-3---|--------------------3--|
    ---1-1-1-1-4-----------1-|---1---1-1---1-1---------1-|---1-1-1-1----------1--|
    
                                                                              
    --------------------------|------------------------|---------------------|
    --------------------------|------------------------|---------------------|
    --------------------------|------------------------|---------------------|
    --------------------------|------------------------|------------------3--|
    -----------3-----------3--|-----------6----1----3--|------------------1--|
    ---1-1-1-1-1---1-1-1-1-1--|---1-1-1-1-4---------1--|------------1-1-1----|
    
                                                                        
    ----------------------|----------------------|---------------------|
    ----------------------|----------------------|---------------------|
    ----------------------|----------------------|---------5-----------|
    ----------------------|----------3-----------|----5----3-----------|
    ----4----1----4----3--|----------1----4------|----3----------------|
    ----2---------2----1--|----4-4-4------2------|---------------------|
    
                                                                       
    ---------------------|----------------------|---------------------|
    ---------------------|----------------------|---------------------|
    ---------------------|---------5------------|--------3------------|
    --------3----3-------|----5----3------------|--------1----3-------|
    --------1----1-------|----3--------------6--|-------------1-------|
    ---------------------|-------------------4--|---------------------|
    
                                                                       
    ---------------------|---------------------|----------------------|
    ---------------------|---------------------|----------------------|
    ---------5-----------|---------------------|---------5------------|
    ----5----3-----------|--------3----3-------|----5----3------------|
    ----3----------------|--------1----1-------|----3--------------6--|
    ---------------------|---------------------|-------------------4--|
    
                                                                                   
    ----------------------|---------------------------|---------------------------|
    ----------------------|---------------------------|---------------------------|
    --------3---------0---|-----0-----1-----0-1---0---|-----------3---1---0---0---|
    --------1----3--------|---------------------3-----|---------------------3-----|
    -------------1------3-|---3---3-3---3-3---------3-|---3-3-3-3---------------3-|
    ----------------------|---------------------------|---------------------------|
    
                                                            
    ---------------------------|---------------------------|
    ---------------------------|---------------------------|
    -----0-----1-----0-1---0---|-----------------------0---|
    ---------------------3-----|-----------6---6---8-------|
    ---3---3-3---3-3---------3-|---3-3-3-3-4---4---6-----3-|
    ---------------------------|---------------------------|
    
                                                            
    ---------------------------|---------------------------|
    
    Узнай ВСЕ о своем друге в ВК или FB
    ---------------------------|---------------------------| -----0-----1-----0-1---0---|-----------3---1---0---0---| ---------------------3-----|---------------------3-----| ---3---3-3---3-3---------3-|---3-3-3-3---------------3-| ---------------------------|---------------------------| ---------------------------|---------------------------| ---------------------------|---------------------------| -----0-----1-----0-1---0---|-----------------------0---| ---------------------3-----|-----------6---6---8-------| ---3---3-3---3-3---------3-|---3-3-3-3-4---4---6-----3-| ---------------------------|---------------------------| ---------------------------|---------------------------| ---------------------------|---------------------------| -----0-----1-----0-1---0---|-----------3---1---0---0---| ---------------------3-----|---------------------3-----| ---3---3-3---3-3---------3-|---3-3-3-3---------------3-| ---------------------------|---------------------------| ---------------------------|--------------------------| ---------------------------|--------------------------| -----0-----1-----0-1---0---|--------------------------| ---------------------3-----|-----------6---6---8------| ---3---3-3---3-3---------3-|---3-3-3-3-4---4---6---3--| ---------------------------|-----------------------1--| --------------------------|------------------------|--------------------------| --------------------------|------------------------|--------------------------| --------------------------|------------------------|--------------------------| --------------------------|------------------------|--------------------------| -----------3-----------3--|-----------6----1----3--|-----------3-----------3--| ---1-1-1-1-1---1-1-1-1-1--|---1-1-1-1-4---------1--|---1-1-1-1-1---1-1-1-1-1--| -----------------------|--------------------------|------------------------| -----------------------|--------------------------|------------------------| --------3--3-----------|--------------------------|------------------------| --------1--1-----------|--------------------------|------------------------| --------------------3--|-----------3-----------3--|-----------6----1----3--| ---1-1--------------1--|---1-1-1-1-1---1-1-1-1-1--|---1-1-1-1-4---------1--| -------------------|--------------------|--------------------------| -------------------|--------------------|--------------------------| -------------------|--------3-----------|--------------------------| ----------------3--|--------1-----------|--------------------------| ----------------1--|-----------------3--|-----------3-----------3--| -------------------|-----------------1--|---1-1-1-1-1---1-1-1-1-1--| -------------------------|---------------------------|-----------------------| -------------------------|---------------------------|-----------4-----------| -------------------------|---------------------------|-----------------------| -------------------------|---------------------------|-----------------------| -----------6----1----3---|-----3-----4-----3-4-1-3---|--------------------3--| ---1-1-1-1-4-----------1-|---1---1-1---1-1---------1-|---1-1-1-1----------1--| --------------------------|------------------------|---------------------| --------------------------|------------------------|---------------------| --------------------------|------------------------|---------------------| --------------------------|------------------------|------------------3--| -----------3-----------3--|-----------6----1----3--|------------------1--| ---1-1-1-1-1---1-1-1-1-1--|---1-1-1-1-4---------1--|------------1-1-1----| ----------------------|-----------------------|---------------------| ----------------------|-----------------------|---------------------| ----------------------|-----------------------|---------5-----------| ----------------------|----------3------------|----5----3-----------| ----4----1----4----3--|----------1----4-------|----3----------------| ----2---------2----1--|----4-4-4------2-------|---------------------| ---------------------|----------------------|---------------------| ---------------------|----------------------|---------------------| ---------------------|---------5------------|--------3------------| --------3----3-------|----5----3------------|--------1----3-------| --------1----1-------|----3--------------6--|-------------1-------| ---------------------|-------------------4--|---------------------| ---------------------|---------------------|----------------------| ---------------------|---------------------|----------------------| ---------5-----------|---------------------|---------5------------| ----5----3-----------|--------3----3-------|----5----3------------| ----3----------------|--------1----1-------|----3--------------6--| ---------------------|---------------------|-------------------4--| ----------------------|--------------------------|--------------------------| ----------------------|--------------------------|--------------------------| --------3-------------|--------------------------|-----------------3--------| --------1----3--------|-----------------6--------|-----------------1--------| -------------1--------|-----------------4--------|--------------------------| ------------------1-1-|---1-1-1-1-1-1-1------1-1-|---1-1-1-1-1-1-1------1-1-| ------------------------|----------------------|--------------------------| ------------------------|----------------------|--------------------------| ------------------------|----------------------|--------------------------| -----------------6------|--------3----1--------|-----------------6--------| -----------------4------|--------1-------------|-----------------4--------| ---1-1-1-1-1-1-1--------|------------------1-1-|---1-1-1-1-1-1-1------1-1-| ---------------------4-3-|---1---------------------|----------------------| -------------------------|-------------------------|----------------------| -----------3----5--------|-------------------------|----------------------| -----------1----3--------|-----------------6----6--|----6----3----5-------| -------------------------|-----------------4----4--|----4----1----3----3--| ---1-1-1-1---------------|-----1-1-1-1-1-1---------|-------------------1--| ------------------|------------------|------------------|-------------------| ------------------|------------------|------------------|----------------4--| ------------------|------------------|------------------|-------------------| ------------------|------------------|------------------|-------------------| ------------------|------------------|------------------|-------------------| ------------------|------------------|------------------|-------------------| -----------1---1-1--------|-----------1--1-1--------|-----------1--1-1-----3--| ---4-4-3-1---------4-3-4--|---4-4-3-1--------4-3-4--|---4-4-3-1--------4-3----| --------------------------|-------------------------|-------------------------| --------------------------|-------------------------|-------------------------| --------------------------|-------------------------|-------------------------| --------------------------|-------------------------|-------------------------| ---3-3-1---1--------------|-----------1---1-1--------| ---------4---4-3-4-3-1-4--|---4-4-3-1---------4-3-4--| --------------------------|--------------------------| --------------------------|--------------------------| --------------------------|--------------------------| --------------------------|--------------------------| -----------1---1-1--------|-----------1---1-1-----3--| ---4-4-3-1---------4-3-4--|---4-4-3-1---------4-3----| --------------------------|--------------------------| --------------------------|--------------------------| --------------------------|--------------------------| --------------------------|--------------------------| ---3-3-1---1-----------4--|---4-4-3-1-6--6-6-4-3-4--|---4-4-3-1-6--6-3-4-6-8--| ---------4---4-3-4-3-1----|-------------------------|-------------------------| --------------------------|-------------------------|-------------------------| --------------------------|-------------------------|-------------------------| --------------------------|-------------------------|-------------------------| --------------------------|-------------------------|-------------------------| ---8-8-8-9-11--11-11-9-8-6--|---6-6-8-6-4----3----4--|---4-4-3-1-6--6-6-4-3-4--| ----------------------------|------------------------|-------------------------| ----------------------------|------------------------|-------------------------| ----------------------------|------------------------|-------------------------| ----------------------------|------------------------|-------------------------| ----------------------------|------------------------|-------------------------| ---4-4-3-1-6--6-3-4-6-8--|---8-8-8-9-11--11-11-9-8-6--|---6-6-8-6-4------------| -------------------------|----------------------------|----------------6----4--|

    найти лекарство
    список лекарств






    О сайтеАккордыХит-парадПоискУроки ФорумыИщу песню
    ПрограммыСвежачок-сПодпискаСтатьи
    Яндекс.Метрика