Табулатура Nightwish | Wanderlust  (2) гитара табулатуры уроки тексты песен Nightwish текст lyrics песня аккорды песни ноты нота электрогитара струна  
   А Б В Г Д Е Ж З И К Л М Н О П Р С Т У Ф Х Ч Ш Ы Э Ю Я       Разные песни
1-9 A B C D E F G H I J K L M N O P Q R S T U V W Y Z      Все исполнители in english

    



группа Nightwish, Табулатура песни Wanderlust (2)

Работа в Европе для граждан РФ, Украины, СНГ

  • минимальная зарплата $500.
  • виза и контракт на полгода, возможно продление
  • проживание оплачивает работодатель
  • нужен только загранпаспорт
  • оформление 190 €
  • данное предложение - отличная возможность эмигрировать в Европу и закрепиться здесь навсегда.

  • Мы свяжемся с Вами по WhatsApp или Viber и ответим на любые вопросы.
    на нашем сайте можно почитать подробнее »

    Группа: Nightwish - другие аккорды (414),   о группе (12 статей),   диски (6),   фотографии (25)
    Табулатура песни: Wanderlust (2)
    Просмотров: 1274
    Подобрал: Forever (forever@akkords.ru)




        
                                      Wanderlust                                    
    
                                                                        T.Holopainen
    Guitar 1.
    
                                                          
    E||--------------------------------------17-13-12-10-|
    B||--------------------------13-15-17-18-------------|
    G||--14-10-------------12-14-------------------------|
    D||--------14-12-14-15-------------------------------|
    A||--------------------------------------------------|
    E||--------------------------------------------------|
    
                                                     
    --20--18-20-17-20----20----20-18-20-17-20----20-|
    ------------------20----18----------------20----|
    ------------------------------------------------|
    ------------------------------------------------|
    ------------------------------------------------|
    ------------------------------------------------|
    
                                                   
    --18-17---------------------------------------|
    --------20-15---------------------------------|
    --------------15-14-------------------------2-|
    --------------------17-12-----------------5---|
    --------------------------13-12---------5-----|
    --------------------------------15-10-6-------|
    
                                       
    --------------------------5-3-1-0-|
    ----------3-----3-5---2-5---------|
    --3-----3-----3-----2-------------|
    ------5-----5---------------------|
    ----5-----------------------------|
    ----------------------------------|
    
                                                       
    --------------------------------------17-13-12-10-|
    --------------------------13-15-17-18-------------|
    --14-10-------------12-14-------------------------|
    --------14-12-14-15-------------------------------|
    --------------------------------------------------|
    --------------------------------------------------|
    
                                                     
    --20--18-20-17-20----20----20-18-20-17-20----20-|
    ------------------20----18----------------20----|
    ------------------------------------------------|
    ------------------------------------------------|
    ------------------------------------------------|
    ------------------------------------------------|
    
                                                   
    --18-17---------------------------------------|
    --------20-15---------------------------------|
    --------------15-14-------------------------2-|
    --------------------17-12-----------------5---|
    --------------------------13-12---------5-----|
    --------------------------------15-10-6-------|
    
                                                                                  
    -----------------------------------|--------------------|--------------------|
    ----------3---------------10-8-6-5-|--------------------|--15----------------|
    --3-----3-------7-9---6-9----------|--15----------------|--------------------|
    ------5-----5-8-----7--------------|--------------------|--------------------|
    ----5------------------------------|--------------------|--------------------|
    -----------------------------------|--------------------|--------------------|
    
                                                                             
    --------------------------|------------------------|--------------------|
    --13--------13------------|------------------------|--------------------|
    -----------------15---14--|--12~-------------------|--------------------|
    --------------------------|----------15----14------|--12----------------|
    --------------------------|------------------------|--------------------|
    --------------------------|------------------------|--------------------|
    
                                                                                
    ------------------|------------------|------------------|------------------|
    ------------------|------------------|------------------|------------------|
    ------------------|------------------|------------------|------------------|
    ------------------|------------------|------------------|------------------|
    ------------------|------------------|------------------|------------------|
    ------------------|------------------|------------------|------------------|
    
                                                                                
    ------------------|------------------|------------------|------------------|
    ------------------|------------------|------------------|------------------|
    ------------------|------------------|------------------|------------------|
    ------------------|------------------|------------------|------------------|
    ------------------|------------------|------------------|------------------|
    ------------------|------------------|------------------|------------------|
    
                                                                                
    ------------------|------------------|------------------|------------------|
    ------------------|------------------|------------------|------------------|
    ------------------|------------------|------------------|------------------|
    ------------------|------------------|------------------|------------------|
    ------------------|------------------|------------------|------------------|
    ------------------|------------------|------------------|------------------|
    
                                                                                   
    ------------------|------------------|------------------|---------------------|
    ------------------|------------------|------------------|---------------------|
    ------------------|------------------|------------------|----------7----------|
    ------------------|------------------|------------------|--------------8---7--|
    ------------------|------------------|------------------|---------------------|
    ------------------|------------------|------------------|---------------------|
    
                                                                           
    ----------------------|------------------------|----------------------|
    ----------------------|------------------------|--6----8--------------|
    -----------7----------|-------------5---7---8--|------------7----5----|
    --5------------8---7--|--5---7---8-------------|----------------------|
    ----------------------|------------------------|----------------------|
    ----------------------|------------------------|----------------------|
    
                                                                                
    ----------------------|----------------------|-----------------------------|
    ----------------------|----------------------|-----------------------------|
    -----------7----------|-----------7----------|-----------------------5--5--|
    --8------------8---7--|--5------------8---7--|--5-5-5--7-7-7--8-8-8--------|
    ----------------------|----------------------|-----------------------------|
    ----------------------|----------------------|-----------------------------|
    
                                                                             
    ----------------------|------------------------|------------------------|
    ----------------------|------------------------|------------------------|
    --7----8----7----5----|--7---5-----------------|---------------------5--|
    ----------------------|----------8--7---8---7--|--5---7---8--7----8-----|
    ----------------------|------------------------|------------------------|
    ----------------------|------------------------|------------------------|
    
                                                    
    ------------------------|----------------------|
    ------------------------|----------------------|
    --7---5------8---7---5--|--7----8----7----5----|
    ----------8-------------|----------------------|
    ------------------------|----------------------|
    ------------------------|----------------------|
    
                                                       
    --------------------------------------17-13-12-10-|
    --------------------------13-15-17-18-------------|
    --14-10-------------12-14-------------------------|
    --------14-12-14-15-------------------------------|
    --------------------------------------------------|
    --------------------------------------------------|
    
                                                     
    --20--18-20-17-20----20----20-18-20-17-20----20-|
    ------------------20----18----------------20----|
    ------------------------------------------------|
    ------------------------------------------------|
    ------------------------------------------------|
    ------------------------------------------------|
    
                                                   
    --18-17---------------------------------------|
    --------20-15---------------------------------|
    --------------15-14-------------------------2-|
    --------------------17-12-----------------5---|
    --------------------------13-12---------5-----|
    --------------------------------15-10-6-------|
    
                                       
    --------------------------5-3-1-0-|
    ----------3-----3-5---2-5---------|
    --3-----3-----3-----2-------------|
    ------5-----5---------------------|
    ----5-----------------------------|
    ----------------------------------|
    
                                                       
    --------------------------------------17-13-12-10-|
    --------------------------13-15-17-18-------------|
    --14-10-------------12-14-------------------------|
    --------14-12-14-15-------------------------------|
    --------------------------------------------------|
    --------------------------------------------------|
    
                                                     
    --20--18-20-17-20----20----20-18-20-17-20----20-|
    ------------------20----18----------------20----|
    ------------------------------------------------|
    ------------------------------------------------|
    ------------------------------------------------|
    ------------------------------------------------|
    
                                                   
    --18-17---------------------------------------|
    --------20-15---------------------------------|
    --------------15-14-------------------------2-|
    --------------------17-12-----------------5---|
    --------------------------13-12---------5-----|
    --------------------------------15-10-6-------|
    
                                                                                  
    -----------------------------------|--------------------|--------------------|
    ----------3---------------10-8-6-5-|--------------------|--15----------------|
    --3-----3-------7-9---6-9----------|--15----------------|--------------------|
    ------5-----5-8-----7--------------|--------------------|--------------------|
    ----5------------------------------|--------------------|--------------------|
    -----------------------------------|--------------------|--------------------|
    
                                                                             
    --------------------------|------------------------|--------------------|
    --13--------13------------|------------------------|--------------------|
    -----------------15---14--|--12~-------------------|--------------------|
    --------------------------|----------15----14------|--12----------------|
    --------------------------|------------------------|--------------------|
    --------------------------|------------------------|--------------------|
    
                                                                                
    ------------------|------------------|------------------|------------------|
    ------------------|------------------|------------------|------------------|
    ------------------|------------------|------------------|------------------|
    ------------------|------------------|------------------|------------------|
    ------------------|------------------|------------------|------------------|
    ------------------|------------------|------------------|------------------|
    
                                                                                
    ------------------|------------------|------------------|------------------|
    ------------------|------------------|------------------|------------------|
    ------------------|------------------|------------------|------------------|
    ------------------|------------------|------------------|------------------|
    ------------------|------------------|------------------|------------------|
    ------------------|------------------|------------------|------------------|
    
                                                                                
    ------------------|------------------|------------------|------------------|
    ------------------|------------------|------------------|------------------|
    ------------------|------------------|------------------|------------------|
    
    Узнай ВСЕ о своем друге в ВК или FB
    ------------------|------------------|------------------|------------------| ------------------|------------------|------------------|------------------| ------------------|------------------|------------------|------------------| ------------------|------------------|------------------|---------------------| ------------------|------------------|------------------|---------------------| ------------------|------------------|------------------|----------7----------| ------------------|------------------|------------------|--------------8---7--| ------------------|------------------|------------------|---------------------| ------------------|------------------|------------------|---------------------| ----------------------|------------------------|----------------------| ----------------------|------------------------|--6----8--------------| -----------7----------|-------------5---7---8--|------------7----5----| --5------------8---7--|--5---7---8-------------|----------------------| ----------------------|------------------------|----------------------| ----------------------|------------------------|----------------------| ----------------------|----------------------|-----------------------------| ----------------------|----------------------|-----------------------------| -----------7----------|-----------7----------|-----------------------5--5--| --8------------8---7--|--5------------8---7--|--5-5-5--7-7-7--8-8-8--------| ----------------------|----------------------|-----------------------------| ----------------------|----------------------|-----------------------------| ----------------------|------------------------|------------------------| ----------------------|------------------------|------------------------| --7----8----7----5----|--7---5-----------------|---------------------5--| ----------------------|----------8--7---8---7--|--5---7---8--7----8-----| ----------------------|------------------------|------------------------| ----------------------|------------------------|------------------------| ------------------------|----------------------|------------------| ------------------------|----------------------|------------------| --7---5------8---7---5--|--7----8----7----5----|------------------| ----------8-------------|----------------------|------------------| ------------------------|----------------------|------------------| ------------------------|----------------------|------------------| ------------------|------------------|------------------|------------------| ------------------|------------------|------------------|------------------| ------------------|------------------|------------------|------------------| ------------------|------------------|------------------|------------------| ------------------|------------------|------------------|------------------| ------------------|------------------|------------------|------------------| ------------------|------------------|------------------|------------------| ------------------|------------------|------------------|------------------| ------------------|------------------|------------------|------------------| ------------------|------------------|------------------|------------------| ------------------|------------------|------------------|------------------| ------------------|------------------|------------------|------------------| ------------------|------------------|------------------|------------------| ------------------|------------------|------------------|------------------| ------------------|------------------|------------------|------------------| ------------------|------------------|------------------|------------------| ------------------|------------------|------------------|------------------| ------------------|------------------|------------------|------------------| ------------------|------------------|------------------|------------------| ------------------|------------------|------------------|------------------| ------------------|------------------|------------------|------------------| ------------------|------------------|------------------|------------------| ------------------|------------------|------------------|------------------| ------------------|------------------|------------------|------------------| ------------------|------------------|------------------|------------------| ------------------|------------------|------------------|------------------| ------------------|------------------|------------------|------------------| ------------------|------------------|------------------|------------------| ------------------|------------------|------------------|------------------| ------------------|------------------|------------------|------------------| ------------------|--------------------------------------------------| ------------------|--9h7h5---5h7h9h7h5---5h7h9h7h5---5h7h9h7h5---5h7h| ------------------|--------4t----------4t----------4t----------4t----| ------------------|--------------------------------------------------| ------------------|--------------------------------------------------| ------------------|--------------------------------------------------| --------------------------------------------------|------------------| --9h7h5---5h7h9h7h5---5h7h9h7h5---5h7h9h7h5---5h7-|------------------| --------4t----------4t----------4t----------4t----|------------------| --------------------------------------------------|------------------| --------------------------------------------------|------------------| --------------------------------------------------|------------------| ------------------|--------------------------------------------------| ------------------|--9h7h5---5h7h9h7h5---5h7h9h7h5---5h7h9h7h5---5h7h| ------------------|--------4t----------4t----------4t----------4t----| ------------------|--------------------------------------------------| ------------------|--------------------------------------------------| ------------------|--------------------------------------------------| --------------------------------------------------|------------------| --9h7h5---5h7h9h7h5---5h7h9h7h5---5h7h9h7h5---5h7-|------------------| --------4t----------4t----------4t----------4t----|------------------| --------------------------------------------------|------------------| --------------------------------------------------|------------------| --------------------------------------------------|------------------| ------------------|------------------|------------------|------------------| ------------------|------------------|------------------|------------------| ------------------|------------------|------------------|------------------| ------------------|------------------|------------------|------------------| ------------------|------------------|------------------|------------------| ------------------|------------------|------------------|------------------| ------------------|------------------|------------------|------------------| ------------------|------------------|------------------|------------------| ------------------|------------------|------------------|------------------| ------------------|------------------|------------------|------------------| ------------------|------------------|------------------|------------------| ------------------|------------------|------------------|------------------| ------------------|--------------------------------------------------| ------------------|--9h7h5---5h7h9h7h5---5h7h9h7h5---5h7h9h7h5---5h7h| ------------------|--------4t----------4t----------4t----------4t----| ------------------|--------------------------------------------------| ------------------|--------------------------------------------------| ------------------|--------------------------------------------------| --------------------------------------------------|------------------| --9h7h5---5h7h9h7h5---5h7h9h7h5---5h7h9h7h5---5h7-|------------------| --------4t----------4t----------4t----------4t----|------------------| --------------------------------------------------|------------------| --------------------------------------------------|------------------| --------------------------------------------------|------------------| ------------------|--------------------------------------------------| ------------------|--9h7h5---5h7h9h7h5---5h7h9h7h5---5h7h9h7h5---5h7h| ------------------|--------4t----------4t----------4t----------4t----| ------------------|--------------------------------------------------| ------------------|--------------------------------------------------| ------------------|--------------------------------------------------| --------------------------------------------------|------------------| --9h7h5---5h7h9h7h5---5h7h9h7h5---5h7h9h7h5---5h7-|------------------| --------4t----------4t----------4t----------4t----|------------------| --------------------------------------------------|------------------| --------------------------------------------------|------------------| --------------------------------------------------|------------------| ------------------|------------------|------------------|------------------| ------------------|------------------|------------------|------------------| ------------------|------------------|------------------|------------------| ------------------|------------------|------------------|------------------| ------------------|------------------|------------------|------------------| ------------------|------------------|------------------|------------------| ------------------|------------------|------------------|------------------| ------------------|------------------|------------------|------------------| ------------------|------------------|------------------|------------------| ------------------|------------------|------------------|------------------| ------------------|------------------|------------------|------------------| ------------------|------------------|------------------|------------------| ------------------|------------------|------------------|------------------| ------------------|------------------|------------------|------------------| ------------------|------------------|------------------|------------------| ------------------|------------------|------------------|------------------| ------------------|------------------|------------------|------------------| ------------------|------------------|------------------|------------------| ------------------|------------------|------------------|------------------| ------------------|------------------|------------------|------------------| ------------------|------------------|------------------|------------------| ------------------|------------------|------------------|------------------| ------------------|------------------|------------------|------------------| ------------------|------------------|------------------|------------------| ------------------|------------------|------------------|------------------| ------------------|------------------|------------------|------------------| ------------------|------------------|------------------|------------------| ------------------|------------------|------------------|------------------| ------------------|------------------|------------------|------------------| ------------------|------------------|------------------|------------------| ------------------|------------------|------------------|------------------| ------------------|------------------|------------------|------------------| ------------------|------------------|------------------|------------------| ------------------|------------------|------------------|------------------| ------------------|------------------|------------------|------------------| ------------------|------------------|------------------|------------------| ------------------|------------------|------------------|------------------| ------------------|------------------|------------------|------------------| ------------------|------------------|------------------|------------------| ------------------|------------------|------------------|------------------| ------------------|------------------|------------------|------------------| ------------------|------------------|------------------|------------------| ------------------|------------------|------------------|------------------|| ------------------|------------------|------------------|------------------|| ------------------|------------------|------------------|------------------|| ------------------|------------------|------------------|------------------|| ------------------|------------------|------------------|------------------|| ------------------|------------------|------------------|------------------||

    поиск лекарств
    список лекарств

    Мужская парикмахерская уфа

    Рестораны и бары Уфы. Портал развлечений Уфы

    parikmaherufa.ru

    Декоративная штукатурка для ванной

    ванны, душевые, мебель для ванных комнат, доставка монтаж

    dessa-decor.ru








    О сайтеАккордыХит-парадПоискУроки ФорумыИщу песню
    ПрограммыСвежачок-сПодпискаСтатьи
    Яндекс.Метрика