Табулатура Nightwish | Tutankhamen  (2) гитара табулатуры уроки тексты песен Nightwish текст lyrics песня аккорды песни ноты нота электрогитара струна  
   А Б В Г Д Е Ж З И К Л М Н О П Р С Т У Ф Х Ч Ш Ы Э Ю Я       Разные песни
1-9 A B C D E F G H I J K L M N O P Q R S T U V W Y Z      Все исполнители in english

    



группа Nightwish, Табулатура песни Tutankhamen (2)

Работа в Европе для граждан РФ, Украины, СНГ

  • минимальная зарплата $500.
  • виза и контракт на полгода, возможно продление
  • проживание оплачивает работодатель
  • нужен только загранпаспорт
  • оформление 190 €
  • данное предложение - отличная возможность эмигрировать в Европу и закрепиться здесь навсегда.

  • Мы свяжемся с Вами по WhatsApp или Viber и ответим на любые вопросы.
    на нашем сайте можно почитать подробнее »

    Группа: Nightwish - другие аккорды (414),   о группе (12 статей),   диски (6),   фотографии (25)
    Табулатура песни: Tutankhamen (2)
    Просмотров: 1887
    Подобрал: Forever (forever@akkords.ru)




        
                                      Tutankhamen                                   
    
                                                                           Nightwish
    Rhytm Guitar
    
                                                                   
    E||-------------------|-------------------|-------------------|
    B||-------------------|-------------------|-------------------|
    G||--6----------------|----------2--------|--6----------------|
    D||--6----------------|----------2--------|--6----------------|
    A||--4----------------|----------0--------|--4----------------|
    E||-------------------|-------------------|-------------------|
    
                                                                                   
    -------------------|-------------------|------------------|-------------------|
    -------------------|-------------------|------------------|-------------------|
    ----------2--------|-------------------|------------------|-------------------|
    ----------2--------|--2----------------|------------------|--2----------------|
    ----------0--------|--2----------------|------------------|--2----------------|
    -------------------|--0----------------|------------------|--0----------------|
    
                                                                                   
    ------------------|-------------------|-------------------|-------------------|
    ------------------|-------------------|-------------------|-------------------|
    ------------------|--6----------------|----------2--------|--6----------------|
    ------------------|--6----------------|----------2--------|--6----------------|
    ------------------|--4----------------|----------0--------|--4----------------|
    ------------------|-------------------|-------------------|-------------------|
    
                                                                                   
    -------------------|-------------------|------------------|-------------------|
    -------------------|-------------------|------------------|-------------------|
    ----------2--------|-------------------|------------------|-------------------|
    ----------2--------|--2----------------|------------------|--2----------------|
    ----------0--------|--2----------------|------------------|--2----------------|
    -------------------|--0----------------|------------------|--0----------------|
    
                                                                                 
    ------------------|-------------------|------------------|------------------|
    ------------------|-------------------|------------------|------------------|
    ------------------|--6----------------|------------------|------------------|
    ------------------|--6----------------|------------------|------------------|
    ------------------|--4----------------|------------------|------------------|
    ------------------|-------------------|------------------|------------------|
    
                                                                    
    ------------------------|-------------------|------------------|
    ------------------------|-------------------|------------------|
    --------------5------5--|-------------------|------------------|
    --------------5------5--|--2----------------|------------------|
    ----------3-3-3--3-3-3--|--2----------------|------------------|
    ------------------------|--0----------------|------------------|
    
                                                                            
    ------------------|------------------------|---------------------------|
    ------------------|------------------------|---------------------------|
    ------------------|------------------------|--6-----6-----6-----6------|
    ------------------|--------------3------3--|--6-----6-----6-----6------|
    ------------------|--------------3------3--|--4--4--4--4--4--4--4--4-4-|
    ------------------|----------1-1-1--1-1-1--|---------------------------|
    
                                                            
    ---------------------------|---------------------------|
    ---------------------------|---------------------------|
    --6-----6-----6-----6------|--6-----6-----6-----6------|
    --7-----6-----6-----6------|--7-----6-----6-----6------|
    --4--4--4--4--4--4--4--4-4-|--4--4--4--4--4--4--4--4-4-|
    ---------------------------|---------------------------|
    
                                                             
    ----------------------------|---------------------------|
    ----------------------------|---------------------------|
    --6-----6---------5------5--|--9-----9-----9-----9------|
    --7-----6---------5------5--|--9-----9-----9-----9------|
    --4--4--4--4--3-3-3--3-3-3--|--7--7--7--7--7--7--7--7-7-|
    ----------------------------|---------------------------|
    
                                                              
    ----------------------------|----------------------------|
    ----------------------------|----------------------------|
    --9------9-----9-----9------|--9------9-----9-----9------|
    --10-----9-----9-----9------|--10-----9-----9-----9------|
    --7---7--7--7--7--7--7--7-7-|--7---7--7--7--7--7--7--7-7-|
    ----------------------------|----------------------------|
    
                                                                                 
    -------------------------------|--------------------|-----------------------|
    -------------------------------|--------------------|-----------------------|
    --9------9---------10------10--|--7--------------7--|--8------8--7/8/7------|
    --10-----9---------10------10--|--7--------------7--|--8------8--7/8/7------|
    --7---7--7--7--8-8-8---8-8-8---|--5--------------5--|--6------6--5/6/5------|
    -------------------------------|--------------------|-----------------------|
    
                                                                     
    ---------------------|---------------------|--------------------|
    ---------------------|---------------------|--------------------|
    --x----7----------7--|--5------5--7--------|--7--------------7--|
    --x----7----------7--|--5------5--7--------|--7--------------7--|
    --x----5----------5--|--3------3--5--------|--5--------------5--|
    ---------------------|---------------------|--------------------|
    
                                                                        
    -----------------------|---------------------|---------------------|
    -----------------------|---------------------|---------------------|
    --8------8--7/8/7------|--x----7----------7--|--5------5--7--------|
    --8------8--7/8/7------|--x----7----------7--|--5------5--7--------|
    --6------6--5/6/5------|--x----5----------5--|--3------3--5--------|
    -----------------------|---------------------|---------------------|
    
                                                                                  
    -------------------------|-------------------------|-------------------------|
    -------------------------|-------------------------|-------------------------|
    -------------------------|-------------------------|-------------------------|
    ----5-5-5----5-5-5----3--|--5------------6------6--|----5-5-5----5-5-5----3--|
    ----5-5-5----5-5-5----3--|--5------------6------6--|----5-5-5----5-5-5----3--|
    ----3-3-3----3-3-3----1--|--3--------4-4-4--4-4-4--|----3-3-3----3-3-3----1--|
    
                                                                              
    ---------------------|-------------------------|-------------------------|
    ---------------------|-------------------------|-------------------------|
    -----------3---------|-------------------------|-------------------------|
    --5--------3----3----|----5-5-5----5-5-5----3--|--5------------6------6--|
    --5--------1----3----|----5-5-5----5-5-5----3--|--5------------6------6--|
    --3-------------1----|----3-3-3----3-3-3----1--|--3--------4-4-4--4-4-4--|
    
                                                                        
    -------------------------|---------------------|-------------------|
    -------------------------|---------------------|-------------------|
    -------------------------|-----------3---------|--6----------------|
    ----5-5-5----5-5-5----3--|--5--------3----3----|--6----------------|
    ----5-5-5----5-5-5----3--|--5--------1----3----|--4----------------|
    ----3-3-3----3-3-3----1--|--3-------------1----|-------------------|
    
                                                                   
    ------------------|------------------|------------------------|
    ------------------|------------------|------------------------|
    ------------------|------------------|--------------5------5--|
    ------------------|------------------|--------------5------5--|
    ------------------|------------------|----------3-3-3--3-3-3--|
    ------------------|------------------|------------------------|
    
                                                              
    -------------------|------------------|------------------|
    -------------------|------------------|------------------|
    -------------------|------------------|------------------|
    --2----------------|------------------|------------------|
    --2----------------|------------------|------------------|
    --0----------------|------------------|------------------|
    
                                                         
    ------------------------|---------------------------|
    ------------------------|---------------------------|
    ------------------------|--6-----6-----6-----6------|
    --------------3------3--|--6-----6-----6-----6------|
    --------------3------3--|--4--4--4--4--4--4--4--4-4-|
    ----------1-1-1--1-1-1--|---------------------------|
    
                                                            
    ---------------------------|---------------------------|
    ---------------------------|---------------------------|
    --6-----6-----6-----6------|--6-----6-----6-----6------|
    --7-----6-----6-----6------|--7-----6-----6-----6------|
    --4--4--4--4--4--4--4--4-4-|--4--4--4--4--4--4--4--4-4-|
    ---------------------------|---------------------------|
    
                                                             
    ----------------------------|---------------------------|
    ----------------------------|---------------------------|
    --6-----6---------5------5--|--9-----9-----9-----9------|
    --7-----6---------5------5--|--9-----9-----9-----9------|
    --4--4--4--4--3-3-3--3-3-3--|--7--7--7--7--7--7--7--7-7-|
    ----------------------------|---------------------------|
    
                                                              
    ----------------------------|----------------------------|
    ----------------------------|----------------------------|
    --9------9-----9-----9------|--9------9-----9-----9------|
    --10-----9-----9-----9------|--10-----9-----9-----9------|
    --7---7--7--7--7--7--7--7-7-|--7---7--7--7--7--7--7--7-7-|
    ----------------------------|----------------------------|
    
                                                                                 
    -------------------------------|--------------------|-----------------------|
    -------------------------------|--------------------|-----------------------|
    --9------9---------10------10--|--7--------------7--|--8------8--7/8/7------|
    --10-----9---------10------10--|--7--------------7--|--8------8--7/8/7------|
    --7---7--7--7--8-8-8---8-8-8---|--5--------------5--|--6------6--5/6/5------|
    -------------------------------|--------------------|-----------------------|
    
                                                                          
    ---------------------|---------------------|-------------------------|
    ---------------------|---------------------|-------------------------|
    --x----7----------7--|--5------5--7--------|-------------------------|
    --x----7----------7--|--5------5--7--------|----5-5-5----5-5-5----3--|
    --x----5----------5--|--3------3--5--------|----5-5-5----5-5-5----3--|
    ---------------------|---------------------|----3-3-3----3-3-3----1--|
    
                                                                              
    -------------------------|-------------------------|---------------------|
    -------------------------|-------------------------|---------------------|
    -------------------------|-------------------------|-----------3---------|
    
    Узнай ВСЕ о своем друге в ВК или FB
    --5------------6------6--|----5-5-5----5-5-5----3--|--5--------3----3----| --5------------6------6--|----5-5-5----5-5-5----3--|--5--------1----3----| --3--------4-4-4--4-4-4--|----3-3-3----3-3-3----1--|--3-------------1----| -------------------------|-------------------------|-------------------------| -------------------------|-------------------------|-------------------------| -------------------------|-------------------------|-------------------------| ----5-5-5----5-5-5----3--|--5------------6------6--|----5-5-5----5-5-5----3--| ----5-5-5----5-5-5----3--|--5------------6------6--|----5-5-5----5-5-5----3--| ----3-3-3----3-3-3----1--|--3--------4-4-4--4-4-4--|----3-3-3----3-3-3----1--| ---------------------|-----------------------------| ---------------------|-----------------------------| -----------3---------|-----------------------------| --5--------3----3----|-----------------------------| --5--------1----3----|--2--2-2-2--2-2-2--2-2-3--6--| --3-------------1----|--0--0-0-0--0-0-0--0-0-1--4--| ------------------------------|-----------------------------| ------------------------------|-----------------------------| ------------------------------|-----------------------------| ---------------------------0--|-----------------------------| --2--2-2-2--2-2-2--2-2-3-2-0--|--2--2-2-2--2-2-2--2-2-3--6--| --0--0-0-0--0-0-0--0-0-1-0----|--0--0-0-0--0-0-0--0-0-1--4--| ------------------------------|-----------------------------| ------------------------------|-----------------------------| ------------------------------|--------------------------5--| ---------------------------0--|--6--6-6-6--6-6-6--6-6-7--3--| --2--2-2-2--2-2-2--2-2-3-2-0--|--4--4-4-4--4-4-4--4-4-5-----| --0--0-0-0--0-0-0--0-0-1-0----|-----------------------------| ------------------------------|-----------------------------| ------------------------------|-----------------------------| ------------------------------|--------------------------5--| --6--6-6-6--6-6-6--6-6-----4--|--6--6-6-6--6-6-6--6-6-7--3--| --4--4-4-4--4-4-4--4-4-5h4-2--|--4--4-4-4--4-4-4--4-4-5-----| ------------------------------|-----------------------------| ------------------------------|-----------------------------| ------------------------------|-----------------------------| ------------------------------|-----------------------------| --6--6-6-6--6-6-6--6-6-----4--|-----------------------------| --4--4-4-4--4-4-4--4-4-5h4-2--|--2--2-2-2--2-2-2--2-2-3--6--| ------------------------------|--0--0-0-0--0-0-0--0-0-1--4--| ------------------------------|-----------------------------| ------------------------------|-----------------------------| ------------------------------|-----------------------------| ---------------------------0--|-----------------------------| --2--2-2-2--2-2-2--2-2-3-2-0--|--2--2-2-2--2-2-2--2-2-3--6--| --0--0-0-0--0-0-0--0-0-1-0----|--0--0-0-0--0-0-0--0-0-1--4--| ------------------------------|-----------------------------| ------------------------------|-----------------------------| ------------------------------|--------------------------5--| ---------------------------0--|--6--6-6-6--6-6-6--6-6-7--3--| --2--2-2-2--2-2-2--2-2-3-2-0--|--4--4-4-4--4-4-4--4-4-5-----| --0--0-0-0--0-0-0--0-0-1-0----|-----------------------------| ------------------------------|-----------------------------| ------------------------------|-----------------------------| ------------------------------|--------------------------5--| --6--6-6-6--6-6-6--6-6-----4--|--6--6-6-6--6-6-6--6-6-7--3--| --4--4-4-4--4-4-4--4-4-5h4-2--|--4--4-4-4--4-4-4--4-4-5-----| ------------------------------|-----------------------------| ------------------------------|--------------------|-----------------------| ------------------------------|--------------------|-----------------------| ------------------------------|--7--------------7--|--8------8--7/8/7------| --6--6-6-6--6-6-6--6-6-----4--|--7--------------7--|--8------8--7/8/7------| --4--4-4-4--4-4-4--4-4-5h4-2--|--5--------------5--|--6------6--5/6/5------| ------------------------------|--------------------|-----------------------| ---------------------|---------------------|--------------------| ---------------------|---------------------|--------------------| --x----7----------7--|--5------5--7--------|--7--------------7--| --x----7----------7--|--5------5--7--------|--7--------------7--| --x----5----------5--|--3------3--5--------|--5--------------5--| ---------------------|---------------------|--------------------| -----------------------|---------------------|---------------------| -----------------------|---------------------|---------------------| --8------8--7/8/7------|--x----7----------7--|--5------5--7--------| --8------8--7/8/7------|--x----7----------7--|--5------5--7--------| --6------6--5/6/5------|--x----5----------5--|--3------3--5--------| -----------------------|---------------------|---------------------| -------------------------|-------------------------|-------------------------| -------------------------|-------------------------|-------------------------| -------------------------|-------------------------|-------------------------| ----5-5-5----5-5-5----3--|--5------------6------6--|----5-5-5----5-5-5----3--| ----5-5-5----5-5-5----3--|--5------------6------6--|----5-5-5----5-5-5----3--| ----3-3-3----3-3-3----1--|--3--------4-4-4--4-4-4--|----3-3-3----3-3-3----1--| ---------------------|-------------------------|-------------------------| ---------------------|-------------------------|-------------------------| -----------3---------|-------------------------|-------------------------| --5--------3----3----|----5-5-5----5-5-5----3--|--5------------6------6--| --5--------1----3----|----5-5-5----5-5-5----3--|--5------------6------6--| --3-------------1----|----3-3-3----3-3-3----1--|--3--------4-4-4--4-4-4--| -------------------------|---------------------|------------------------------| -------------------------|---------------------|------------------------------| -------------------------|-----------3---------|------------------------------| ----5-5-5----5-5-5----3--|--5--------3----3----|------------------------------| ----5-5-5----5-5-5----3--|--5--------1----3----|--2--2-2-2--2-2-2--2-2-2--2-2-| ----3-3-3----3-3-3----1--|--3-------------1----|--0--0-0-0--0-0-0--0-0-0--0-0-| ------------------------------|-----------------------------| ------------------------------|-----------------------------| ------------------------------|-----------------------------| ------------------------------|-----------------------------| --2--2-2-2--2-2-2--2-2-2--2-2-|--2--2-2-2--2-2-2--2-2-3--6--| --0--0-0-0--0-0-0--0-0-0--0-0-|--0--0-0-0--0-0-0--0-0-1--4--| ------------------------------|-----------------------------| ------------------------------|-----------------------------| ------------------------------|-----------------------------| ---------------------------0--|-----------------------------| --2--2-2-2--2-2-2--2-2-3-2-0--|--2--2-2-2--2-2-2--2-2-3--6--| --0--0-0-0--0-0-0--0-0-1-0----|--0--0-0-0--0-0-0--0-0-1--4--| ------------------------------|-----------------------------| ------------------------------|-----------------------------| ------------------------------|--------------------------5--| ---------------------------0--|--6--6-6-6--6-6-6--6-6-7--3--| --2--2-2-2--2-2-2--2-2-3-2-0--|--4--4-4-4--4-4-4--4-4-5-----| --0--0-0-0--0-0-0--0-0-1-0----|-----------------------------| ------------------------------|-----------------------------| ------------------------------|-----------------------------| ------------------------------|--------------------------5--| --6--6-6-6--6-6-6--6-6-----4--|--6--6-6-6--6-6-6--6-6-7--3--| --4--4-4-4--4-4-4--4-4-5h4-2--|--4--4-4-4--4-4-4--4-4-5-----| ------------------------------|-----------------------------| ------------------------------|-----------------------------| ------------------------------|-----------------------------| ------------------------------|-----------------------------| --6--6-6-6--6-6-6--6-6-----4--|-----------------------------| --4--4-4-4--4-4-4--4-4-5h4-2--|--2--2-2-2--2-2-2--2-2-3--6--| ------------------------------|--0--0-0-0--0-0-0--0-0-1--4--| ------------------------------|-----------------------------| ------------------------------|-----------------------------| ------------------------------|-----------------------------| ---------------------------0--|-----------------------------| --2--2-2-2--2-2-2--2-2-3-2-0--|--2--2-2-2--2-2-2--2-2-3--6--| --0--0-0-0--0-0-0--0-0-1-0----|--0--0-0-0--0-0-0--0-0-1--4--| ------------------------------|-----------------------------| ------------------------------|-----------------------------| ------------------------------|--------------------------5--| ---------------------------0--|--6--6-6-6--6-6-6--6-6-7--3--| --2--2-2-2--2-2-2--2-2-3-2-0--|--4--4-4-4--4-4-4--4-4-5-----| --0--0-0-0--0-0-0--0-0-1-0----|-----------------------------| ------------------------------|-----------------------------| ------------------------------|-----------------------------| ------------------------------|--------------------------5--| --6--6-6-6--6-6-6--6-6-----4--|--6--6-6-6--6-6-6--6-6-7--3--| --4--4-4-4--4-4-4--4-4-5h4-2--|--4--4-4-4--4-4-4--4-4-5-----| ------------------------------|-----------------------------| ------------------------------|| ------------------------------|| ------------------------------|| --6--6-6-6--6-6-6--6-6-----4--|| --4--4-4-4--4-4-4--4-4-5h4-2--|| ------------------------------||

    искать в аптеке
    список лекарств






    О сайтеАккордыХит-парадПоискУроки ФорумыИщу песню
    ПрограммыСвежачок-сПодпискаСтатьи
    Яндекс.Метрика