Табулатура Nightwish | Tutankhamen гитара табулатуры уроки тексты песен Nightwish текст lyrics песня аккорды песни ноты нота электрогитара струна  
   А Б В Г Д Е Ж З И К Л М Н О П Р С Т У Ф Х Ч Ш Ы Э Ю Я       Разные песни
1-9 A B C D E F G H I J K L M N O P Q R S T U V W Y Z      Все исполнители in english

    



группа Nightwish, Табулатура песни Tutankhamen

Продолжаем грести бабос на ботах в Telegram.
Только в этот раз есть вариант автоматизировать это дело, привлекая рефералов. Вы можете заработать если »

Группа: Nightwish - другие аккорды (414),   о группе (12 статей),   диски (6),   фотографии (25)
Табулатура песни: Tutankhamen
Просмотров: 1911
Подобрал: Forever (forever@akkords.ru)




    
                                  Tutankhamen                                   

                                                                       Nightwish
Flute

                                                
E||-------16-16--14-16-17-16-17-20-17-16-14-17-|
B||--14----------------------------------------|
G||--------------------------------------------|
D||--------------------------------------------|
A||--------------------------------------------|
E||--------------------------------------------|

                                         
--16----------16-14-12------------12-11-|
------14--14------------10--10-14-------|
----------------------------------------|
----------------------------------------|
----------------------------------------|
----------------------------------------|

                                             
-------16-16--14-16-17-16-17-20-17-16-14-17-|
--14----------------------------------------|
--------------------------------------------|
--------------------------------------------|
--------------------------------------------|
--------------------------------------------|

                                         
--16----------16-14-12------------12-11-|
------14--14------------10--10-14-------|
----------------------------------------|
----------------------------------------|
----------------------------------------|
----------------------------------------|

                                         
------19-17-19------17------------------|
--17------------20-----20-19--20-19-----|
------------------------------------19--|
----------------------------------------|
----------------------------------------|
----------------------------------------|

                                                 
------19-17-19------17--------19-20-23-24-23-20-|
--17------------20-----20-19--------------------|
------------------------------------------------|
------------------------------------------------|
------------------------------------------------|
------------------------------------------------|

                                         
------19-17-19------17------------------|
--17------------20-----20-19--20-19-----|
------------------------------------19--|
----------------------------------------|
----------------------------------------|
----------------------------------------|

                                                 
------19-17-19------17--------19-20-23-24-23-20-|
--17------------20-----20-19--------------------|
------------------------------------------------|
------------------------------------------------|
------------------------------------------------|
------------------------------------------------|

                                             
-------16-16--14-16-17-16-17-20-17-16-14-17-|
--14----------------------------------------|
--------------------------------------------|
--------------------------------------------|
--------------------------------------------|
--------------------------------------------|

                                         
--16----------16-14-12------------12-11-|
------14--14------------10--10-14-------|
----------------------------------------|
----------------------------------------|
----------------------------------------|
----------------------------------------|

                                             
-------16-16--14-16-17-16-17-20-17-16-14-17-|
--14----------------------------------------|
--------------------------------------------|
--------------------------------------------|
--------------------------------------------|
--------------------------------------------|

                                         
--16----------16-14-12------------12-11-|
------14--14------------10--10-14-------|
----------------------------------------|
----------------------------------------|
----------------------------------------|
----------------------------------------|

                                         
------19-17-19------17------------------|
--17------------20-----20-19--20-19-----|
------------------------------------19--|
----------------------------------------|
----------------------------------------|
----------------------------------------|

                                                 
------19-17-19------17--------19-20-23-24-23-20-|
--17------------20-----20-19--------------------|
------------------------------------------------|
------------------------------------------------|
------------------------------------------------|
------------------------------------------------|

                                         
------19-17-19------17------------------|
--17------------20-----20-19--20-19-----|
------------------------------------19--|
----------------------------------------|
----------------------------------------|
----------------------------------------|

                                                                    
------19-17-19------17--------19-20-23-24-23-20-|------------------|
--17------------20-----20-19--------------------|------------------|
------------------------------------------------|------------------|
------------------------------------------------|------------------|
------------------------------------------------|------------------|
------------------------------------------------|------------------|

                                                                            
------------------|------------------|------------------|------------------|
------------------|------------------|------------------|------------------|
------------------|------------------|------------------|------------------|
------------------|------------------|------------------|------------------|
------------------|------------------|------------------|------------------|
------------------|------------------|------------------|------------------|

                                                                            
------------------|------------------|------------------|------------------|
------------------|------------------|------------------|------------------|
------------------|------------------|------------------|------------------|
------------------|------------------|------------------|------------------|
------------------|------------------|------------------|------------------|
------------------|------------------|------------------|------------------|

                                                                            
------------------|------------------|------------------|------------------|
------------------|------------------|------------------|------------------|
------------------|------------------|------------------|------------------|
------------------|------------------|------------------|------------------|
------------------|------------------|------------------|------------------|
------------------|------------------|------------------|------------------|

                                                         
------------------|------------------|------------------|
------------------|------------------|------------------|
------------------|------------------|------------------|
------------------|------------------|------------------|
------------------|------------------|------------------|
------------------|------------------|------------------|

                                          
--------14-15-17--17----17-18-17-15--17--|
--15-16----------------------------------|
-----------------------------------------|
-----------------------------------------|
-----------------------------------------|
-----------------------------------------|

                                                                              
--18---18-20--18--17-18-17-15-17------|------17-15-14------------------------|
----------------------------------15--|--15------------16--15--15-13-15--15--|
--------------------------------------|--------------------------------------|
--------------------------------------|--------------------------------------|
--------------------------------------|--------------------------------------|
--------------------------------------|--------------------------------------|

                                                                            
------------15-------------------|--------14-15-17--17----17-18-17-15--17--|
--16--16-18----15--13--15--------|--15-16----------------------------------|
---------------------------------|-----------------------------------------|
---------------------------------|-----------------------------------------|
---------------------------------|-----------------------------------------|
---------------------------------|-----------------------------------------|

                                                                              
--18---18-20--18--17-18-17-15-17------|------17-15-14------------------------|
----------------------------------15--|--15------------16--15--15-13-15--15--|
--------------------------------------|--------------------------------------|
--------------------------------------|--------------------------------------|
--------------------------------------|--------------------------------------|
--------------------------------------|--------------------------------------|

                                                                        
------------15-------------------|------------------|------------------|
--16--16-18----15--13--15--------|------------------|------------------|
---------------------------------|------------------|------------------|

Продолжаем грести бабос на ботах в Telegram.
Только в этот раз есть вариант автоматизировать это дело, привлекая рефералов. Вы можете заработать если »

---------------------------------|------------------|------------------| ---------------------------------|------------------|------------------| ---------------------------------|------------------|------------------| ------------------|------------------|------------------|------------------| ------------------|------------------|------------------|------------------| ------------------|------------------|------------------|------------------| ------------------|------------------|------------------|------------------| ------------------|------------------|------------------|------------------| ------------------|------------------|------------------|------------------| ------------------|------------------|------------------|------------------| ------------------|------------------|------------------|------------------| ------------------|------------------|------------------|------------------| ------------------|------------------|------------------|------------------| ------------------|------------------|------------------|------------------| ------------------|------------------|------------------|------------------| ------------------|------------------|------------------|------------------| ------------------|------------------|------------------|------------------| ------------------|------------------|------------------|------------------| ------------------|------------------|------------------|------------------| ------------------|------------------|------------------|------------------| ------------------|------------------|------------------|------------------| ------------------|------------------|------------------|------------------| ------------------|------------------|------------------|------------------| ------------------|------------------|------------------|------------------| ------------------|------------------|------------------|------------------| ------------------|------------------|------------------|------------------| ------------------|------------------|------------------|------------------| ------------------|------------------|------------------|------------------| ------------------|------------------|------------------|------------------| ------------------|------------------|------------------|------------------| ------------------|------------------|------------------|------------------| ------------------|------------------|------------------|------------------| ------------------|------------------|------------------|------------------| ------------------|------------------|--------14-15-17--17----17-18-17-15--17--| ------------------|------------------|--15-16----------------------------------| ------------------|------------------|-----------------------------------------| ------------------|------------------|-----------------------------------------| ------------------|------------------|-----------------------------------------| ------------------|------------------|-----------------------------------------| --18---18-20--18--17-18-17-15-17------|------17-15-14------------------------| ----------------------------------15--|--15------------16--15--15-13-15--15--| --------------------------------------|--------------------------------------| --------------------------------------|--------------------------------------| --------------------------------------|--------------------------------------| --------------------------------------|--------------------------------------| ------------15-------------------|------------------|------------------| --16--16-18----15--13--15--------|------------------|------------------| ---------------------------------|------------------|------------------| ---------------------------------|------------------|------------------| ---------------------------------|------------------|------------------| ---------------------------------|------------------|------------------| ------------------|------------------|------------------|------------------| ------------------|------------------|------------------|------------------| ------------------|------------------|------------------|------------------| ------------------|------------------|------------------|------------------| ------------------|------------------|------------------|------------------| ------------------|------------------|------------------|------------------| ------------------|------------------|------------------|------------------| ------------------|------------------|------------------|------------------| ------------------|------------------|------------------|------------------| ------------------|------------------|------------------|------------------| ------------------|------------------|------------------|------------------| ------------------|------------------|------------------|------------------| ------------------|------------------|------------------|------------------| ------------------|------------------|------------------|------------------| ------------------|------------------|------------------|------------------| ------------------|------------------|------------------|------------------| ------------------|------------------|------------------|------------------| ------------------|------------------|------------------|------------------| ------------------|------------------|------------------|------------------| ------------------|------------------|------------------|------------------| ------------------|------------------|------------------|------------------| ------------------|------------------|------------------|------------------| ------------------|------------------|------------------|------------------| ------------------|------------------|------------------|------------------| ------------------|------------------|------------------|------------------| ------------------|------------------|------------------|------------------| ------------------|------------------|------------------|------------------| ------------------|------------------|------------------|------------------| ------------------|------------------|------------------|------------------| ------------------|------------------|------------------|------------------| ------------------|------------------|--------14-15-17--17----17-18-17-15--17--| ------------------|------------------|--15-16----------------------------------| ------------------|------------------|-----------------------------------------| ------------------|------------------|-----------------------------------------| ------------------|------------------|-----------------------------------------| ------------------|------------------|-----------------------------------------| --18---18-20--18--17-18-17-15-17------|------17-15-14------------------------| ----------------------------------15--|--15------------16--15--15-13-15--15--| --------------------------------------|--------------------------------------| --------------------------------------|--------------------------------------| --------------------------------------|--------------------------------------| --------------------------------------|--------------------------------------| ------------15-------------------|--------14-15-17--17----17-18-17-15--17--| --16--16-18----15--13--15--------|--15-16----------------------------------| ---------------------------------|-----------------------------------------| ---------------------------------|-----------------------------------------| ---------------------------------|-----------------------------------------| ---------------------------------|-----------------------------------------| --18---18-20--18--17-18-17-15-17------|------17-15-14------------------------| ----------------------------------15--|--15------------16--15--15-13-15--15--| --------------------------------------|--------------------------------------| --------------------------------------|--------------------------------------| --------------------------------------|--------------------------------------| --------------------------------------|--------------------------------------| ----------23----------------|------------------|------------------| --16--16------16--15--------|------------------|------------------| ----------------------------|------------------|------------------| ----------------------------|------------------|------------------| ----------------------------|------------------|------------------| ----------------------------|------------------|------------------| ------------------|------------------|------------------|------------------| ------------------|------------------|------------------|------------------| ------------------|------------------|------------------|------------------| ------------------|------------------|------------------|------------------| ------------------|------------------|------------------|------------------| ------------------|------------------|------------------|------------------| ------------------|------------------|------------------|------------------| ------------------|------------------|------------------|------------------| ------------------|------------------|------------------|------------------| ------------------|------------------|------------------|------------------| ------------------|------------------|------------------|------------------| ------------------|------------------|------------------|------------------| ------------------|------------------|------------------|------------------| ------------------|------------------|------------------|------------------| ------------------|------------------|------------------|------------------| ------------------|------------------|------------------|------------------| ------------------|------------------|------------------|------------------| ------------------|------------------|------------------|------------------| ------------------|------------------|------------------|------------------| ------------------|------------------|------------------|------------------| ------------------|------------------|------------------|------------------| ------------------|------------------|------------------|------------------| ------------------|------------------|------------------|------------------| ------------------|------------------|------------------|------------------| ------------------|------------------|------------------|------------------| ------------------|------------------|------------------|------------------| ------------------|------------------|------------------|------------------| ------------------|------------------|------------------|------------------| ------------------|------------------|------------------|------------------| ------------------|------------------|------------------|------------------| ------------------|------------------|------------------|------------------|| ------------------|------------------|------------------|------------------|| ------------------|------------------|------------------|------------------|| ------------------|------------------|------------------|------------------|| ------------------|------------------|------------------|------------------|| ------------------|------------------|------------------|------------------||

искать в аптеке
список лекарств






О сайтеАккордыХит-парадПоискУроки ФорумыИщу песню
ПрограммыСвежачок-сПодпискаСтатьи
Яндекс.Метрика