Табулатура Nightwish | Tutankhamen гитара табулатуры уроки тексты песен Nightwish текст lyrics песня аккорды песни ноты нота электрогитара струна  
   А Б В Г Д Е Ж З И К Л М Н О П Р С Т У Ф Х Ч Ш Ы Э Ю Я       Разные песни
1-9 A B C D E F G H I J K L M N O P Q R S T U V W Y Z      Все исполнители in english

    



группа Nightwish, Табулатура песни Tutankhamen

Работа в Европе для граждан РФ, Украины, СНГ

  • минимальная зарплата $500.
  • виза и контракт на полгода, возможно продление
  • проживание оплачивает работодатель
  • нужен только загранпаспорт
  • оформление 190 €
  • данное предложение - отличная возможность эмигрировать в Европу и закрепиться здесь навсегда.

  • Мы свяжемся с Вами по WhatsApp или Viber и ответим на любые вопросы.
    на нашем сайте можно почитать подробнее »

    Группа: Nightwish - другие аккорды (414),   о группе (12 статей),   диски (6),   фотографии (25)
    Табулатура песни: Tutankhamen
    Просмотров: 1032
    Подобрал: Forever (forever@akkords.ru)




        
                                      Tutankhamen                                   
    
                                                                           Nightwish
    Lead Guitar
    
                                                                                   
    E||------------------|------------------|------------------|------------------|
    B||------------------|------------------|------------------|------------------|
    G||------------------|------------------|------------------|------------------|
    D||------------------|------------------|------------------|------------------|
    A||------------------|------------------|------------------|------------------|
    E||------------------|------------------|------------------|------------------|
    
                                                                             
    ---------------------------------|--------------------------------------|
    ---------------------------------|--------------------------------------|
    ---------------------------------|-----------------------------8h9h8----|
    -----9-7-9------7----------------|-----9-7-9------7-------9/10-------10-|
    --7---------10----10-9--10-9-----|--7---------10----10-9----------------|
    -----------------------------10--|--------------------------------------|
    
                                                                             
    ---------------------------------|--------------------------------------|
    ---------------------------------|--------------------------------------|
    ---------------------------------|-----------------------------8h9h8----|
    -----9-7-9------7----------------|-----9-7-9------7-------9/10-------10-|
    --7---------10----10-9--10-9-----|--7---------10----10-9----------------|
    -----------------------------10--|--------------------------------------|
    
                                                                  
    -------------------------------|-----------------------------|
    -------------------------------|-----------------------------|
    ---------------------5---------|-----------------------------|
    ------6-6--4-6-7-6-7---7-6-4-7-|--6--------6-4---------------|
    --4----------------------------|-----4--4------7-------4-7-6-|
    -------------------------------|------------------5--5-------|
    
                                                                  
    -------------------------------|-----------------------------|
    -------------------------------|-----------------------------|
    ---------------------5---------|-----------------------------|
    ------6-6--4-6-7-6-7---7-6-4-7-|--6--------6-4---------------|
    --4----------------------------|-----4--4------7-------4-7-6-|
    -------------------------------|------------------5--5-------|
    
                                                                             
    ---------------------------------|--------------------------------------|
    ---------------------------------|--------------------------------------|
    ---------------------------------|-----------------------------8h9h8----|
    -----9-7-9------7----------------|-----9-7-9------7-------9/10-------10-|
    --7---------10----10-9--10-9-----|--7---------10----10-9----------------|
    -----------------------------10--|--------------------------------------|
    
                                                                             
    ---------------------------------|--------------------------------------|
    ---------------------------------|--------------------------------------|
    ---------------------------------|-----------------------------8h9h8----|
    -----9-7-9------7----------------|-----9-7-9------7-------9/10-------10-|
    --7---------10----10-9--10-9-----|--7---------10----10-9----------------|
    -----------------------------10--|--------------------------------------|
    
                                                                                 
    -------------------|------------------|------------------|------------------|
    -------------------|------------------|------------------|------------------|
    --9----------------|------------------|------------------|------------------|
    -------------------|------------------|------------------|------------------|
    -------------------|------------------|------------------|------------------|
    -------------------|------------------|------------------|------------------|
    
                                                                                
    ------------------|------------------|------------------|------------------|
    ------------------|------------------|------------------|------------------|
    ------------------|------------------|------------------|------------------|
    ------------------|------------------|------------------|------------------|
    ------------------|------------------|------------------|------------------|
    ------------------|------------------|------------------|------------------|
    
                                                                                
    ------------------|------------------|------------------|------------------|
    ------------------|------------------|------------------|------------------|
    ------------------|------------------|------------------|------------------|
    ------------------|------------------|------------------|------------------|
    ------------------|------------------|------------------|------------------|
    ------------------|------------------|------------------|------------------|
    
                                                                                
    ------------------|------------------|------------------|------------------|
    ------------------|------------------|------------------|------------------|
    ------------------|------------------|------------------|------------------|
    ------------------|------------------|------------------|------------------|
    ------------------|------------------|------------------|------------------|
    ------------------|------------------|------------------|------------------|
    
                                                                                
    ------------------|------------------|------------------|------------------|
    ------------------|------------------|------------------|------------------|
    ------------------|------------------|------------------|------------------|
    ------------------|------------------|------------------|------------------|
    ------------------|------------------|------------------|------------------|
    ------------------|------------------|------------------|------------------|
    
                                                                                
    ------------------|------------------|------------------|------------------|
    ------------------|------------------|------------------|------------------|
    ------------------|------------------|------------------|------------------|
    ------------------|------------------|------------------|------------------|
    ------------------|------------------|------------------|------------------|
    ------------------|------------------|------------------|------------------|
    
                                                                                
    ------------------|------------------|------------------|------------------|
    ------------------|------------------|------------------|------------------|
    ------------------|------------------|------------------|------------------|
    ------------------|------------------|------------------|------------------|
    ------------------|------------------|------------------|------------------|
    ------------------|------------------|------------------|------------------|
    
                                                                                
    ------------------|------------------|------------------|------------------|
    ------------------|------------------|------------------|------------------|
    ------------------|------------------|------------------|------------------|
    ------------------|------------------|------------------|------------------|
    ------------------|------------------|------------------|------------------|
    ------------------|------------------|------------------|------------------|
    
                                                                                
    ------------------|------------------|------------------|------------------|
    ------------------|------------------|------------------|------------------|
    ------------------|------------------|------------------|------------------|
    ------------------|------------------|------------------|------------------|
    ------------------|------------------|------------------|------------------|
    ------------------|------------------|------------------|------------------|
    
                                                                                
    ------------------|------------------|------------------|------------------|
    ------------------|------------------|------------------|------------------|
    ------------------|------------------|------------------|------------------|
    ------------------|------------------|------------------|------------------|
    ------------------|------------------|------------------|------------------|
    ------------------|------------------|------------------|------------------|
    
                                                                                
    ------------------|------------------|------------------|------------------|
    ------------------|------------------|------------------|------------------|
    ------------------|------------------|------------------|------------------|
    ------------------|------------------|------------------|------------------|
    ------------------|------------------|------------------|------------------|
    ------------------|------------------|------------------|------------------|
    
                                                                                
    ------------------|------------------|------------------|------------------|
    ------------------|------------------|------------------|------------------|
    ------------------|------------------|------------------|------------------|
    ------------------|------------------|------------------|------------------|
    ------------------|------------------|------------------|------------------|
    ------------------|------------------|------------------|------------------|
    
                                                                                
    
    Узнай ВСЕ о своем друге в ВК или FB
    ------------------|------------------|------------------|------------------| ------------------|------------------|------------------|------------------| ------------------|------------------|------------------|------------------| ------------------|------------------|------------------|------------------| ------------------|------------------|------------------|------------------| ------------------|------------------|------------------|------------------| ------------------|------------------|------------------|------------------| ------------------|------------------|------------------|------------------| ------------------|------------------|------------------|------------------| ------------------|------------------|------------------|------------------| ------------------|------------------|------------------|------------------| ------------------|------------------|------------------|------------------| ------------------|------------------|------------------|------------------| ------------------|------------------|------------------|------------------| ------------------|------------------|------------------|------------------| ------------------|------------------|------------------|------------------| ------------------|------------------|------------------|------------------| ------------------|------------------|------------------|------------------| ------------------|------------------|------------------|------------------| ------------------|------------------|------------------|------------------| ------------------|------------------|------------------|------------------| ------------------|------------------|------------------|------------------| ------------------|------------------|------------------|------------------| ------------------|------------------|------------------|------------------| ------------------|------------------|------------------|------------------| ------------------|------------------|------------------|------------------| ------------------|------------------|------------------|------------------| ------------------|------------------|------------------|------------------| ------------------|------------------|------------------|------------------| ------------------|------------------|------------------|------------------| ------------------|------------------|------------------|------------------| ------------------|------------------|------------------|------------------| ------------------|------------------|------------------|------------------| ------------------|------------------|------------------|------------------| ------------------|------------------|------------------|------------------| ------------------|------------------|------------------|------------------| ------------------|------------------|------------------|------------------| ------------------|------------------|------------------|------------------| ------------------|------------------|------------------|------------------| ------------------|------------------|------------------|------------------| ------------------|------------------|------------------|------------------| ------------------|------------------|------------------|------------------| ------------------|------------------|------------------|------------------| ------------------|------------------|------------------|------------------| ------------------|------------------|------------------|------------------| ------------------|------------------|------------------|------------------| ------------------|------------------|------------------|------------------| ------------------|------------------|------------------|------------------| ------------------|------------------|------------------|------------------| ------------------|------------------|------------------|------------------| ------------------|------------------|------------------|------------------| ------------------|------------------|------------------|------------------| ------------------|------------------|------------------|------------------| ------------------|------------------|------------------|------------------| ------------------|------------------|------------------|------------------| ------------------|------------------|------------------|------------------| ------------------|------------------|------------------|------------------| ------------------|------------------|------------------|------------------| ------------------|------------------|------------------|------------------| ------------------|------------------|------------------|------------------| ------------------|------------------|------------------|------------------| ------------------|------------------|------------------|------------------| ------------------|------------------|------------------|------------------| ------------------|------------------|------------------|------------------| ------------------|------------------|------------------|------------------| ------------------|------------------|------------------|------------------| ------------------|------------------|--------------------| ------------------|------------------|--------------------| ------------------|------------------|------8b---8~-------| ------------------|------------------|--------------------| ------------------|------------------|--------------------| ------------------|------------------|--------------------| ---------------------|------------------------------------------| ---------------------|------4-5-4-----4-5-4-----4-5-7-5-----5-4-| --4----4b---4--------|--4-5-------4-5-------4-5---------5-4-----| ---------------------|------------------------------------------| ---------------------|------------------------------------------| ---------------------|------------------------------------------| ---------------------------------|--------------------------------9/---| ---------------------------------|--9-10-9----9-10-9----9-10-9b--------| --5-4-2-4-2----------------------|---------11--------11----------------| ------------5-4-2----------------|-------------------------------------| ------------------5-3-2----------|-------------------------------------| ------------------------5-3-0~---|-------------------------------------| ---------------------------------------| --13-9-9-14-9-9-16-9-9-17-9-9-16-9-14--| ---------------------------------------| ---------------------------------------| ---------------------------------------| ---------------------------------------| --------------------------------------------------------------| --13-14-13-------13-14-13-------16-14-13-14-13----------13-14-| -----------14-13----------14-13----------------14-13-14-------| --------------------------------------------------------------| --------------------------------------------------------------| --------------------------------------------------------------| -----------------------------------------------------------------| --16-14-13----------------------------------------------14-16-17-| -----------14-13-11----------------------------13-14-16----------| --------------------14-13-11----------13-15-16-------------------| -----------------------------14-15-16----------------------------| -----------------------------------------------------------------| --------------------|------------------|------------------|------------------| --17/---------------|------------------|------------------|------------------| --------------------|------------------|------------------|------------------| --------------------|------------------|------------------|------------------| --------------------|------------------|------------------|------------------| --------------------|------------------|------------------|------------------| ------------------|------------------|------------------|------------------|| ------------------|------------------|------------------|------------------|| ------------------|------------------|------------------|------------------|| ------------------|------------------|------------------|------------------|| ------------------|------------------|------------------|------------------|| ------------------|------------------|------------------|------------------||

    искать в аптеке
    список лекарств






    О сайтеАккордыХит-парадПоискУроки ФорумыИщу песню
    ПрограммыСвежачок-сПодпискаСтатьи
    Яндекс.Метрика