Табулатура Nightwish | The Kinslayer  (4) гитара табулатуры уроки тексты песен Nightwish текст lyrics песня аккорды песни ноты нота электрогитара струна  
   А Б В Г Д Е Ж З И К Л М Н О П Р С Т У Ф Х Ч Ш Ы Э Ю Я       Разные песни
1-9 A B C D E F G H I J K L M N O P Q R S T U V W Y Z      Все исполнители in english

    



группа Nightwish, Табулатура песни The Kinslayer (4)

Работа в Европе для граждан РФ, Украины, СНГ

  • минимальная зарплата $500.
  • виза и контракт на полгода, возможно продление
  • проживание оплачивает работодатель
  • нужен только загранпаспорт
  • оформление 190 €
  • данное предложение - отличная возможность эмигрировать в Европу и закрепиться здесь навсегда.

  • Мы свяжемся с Вами по WhatsApp или Viber и ответим на любые вопросы.
    на нашем сайте можно почитать подробнее »

    Группа: Nightwish - другие аккорды (414),   о группе (12 статей),   диски (6),   фотографии (25)
    Табулатура песни: The Kinslayer (4)
    Просмотров: 1106
    Подобрал: Forever (forever@akkords.ru)




        
                                      Kinslayer                                     
    
                                                                          
    Keyboard 2.
    
                                                                               
    E||------------------|------------------|------------------|--------------|
    B||------------------|------------------|------------------|--------------|
    G||------------------|------------------|------------------|--------------|
    D||------------------|------------------|------------------|--------------|
    A||------------------|------------------|------------------|--------------|
    E||------------------|------------------|------------------|--------------|
    
                                                                            
    ------------------|------------------|------------------|--------------|
    ------------------|------------------|------------------|--------------|
    ------------------|------------------|------------------|--------------|
    ------------------|------------------|------------------|--------------|
    ------------------|------------------|------------------|--------------|
    ------------------|------------------|------------------|--------------|
    
                                                                                
    ------------------|------------------|------------------|------------------|
    ------------------|------------------|------------------|------------------|
    ------------------|------------------|------------------|------------------|
    ------------------|------------------|------------------|------------------|
    ------------------|------------------|------------------|------------------|
    ------------------|------------------|------------------|------------------|
    
                                                                                    
    --4----------------|----------2--------|--4----------------|----------2--------|
    --5----------------|----------2--------|--5----------------|----------2--------|
    --6----------------|----------2--------|--6----------------|----------2--------|
    -------------------|-------------------|-------------------|-------------------|
    -------------------|-------------------|-------------------|-------------------|
    -------------------|-------------------|-------------------|-------------------|
    
                                                                                
    ------------------|------------------|------------------|------------------|
    ------------------|------------------|------------------|------------------|
    ------------------|------------------|------------------|------------------|
    ------------------|------------------|------------------|------------------|
    ------------------|------------------|------------------|------------------|
    ------------------|------------------|------------------|------------------|
    
                                                                                
    ------------------|------------------|------------------|------------------|
    ------------------|------------------|------------------|------------------|
    ------------------|------------------|------------------|------------------|
    ------------------|------------------|------------------|------------------|
    ------------------|------------------|------------------|------------------|
    ------------------|------------------|------------------|------------------|
    
                                                                         
    ----4----4----4----4--|----4----4----4--4----|----4----4----4----4--|
    ----------------------|-----------------4----|----------------------|
    ----6----6----6----6--|----6----6----6--5----|----6----6----6----6--|
    ----------------------|----------------------|----------------------|
    ----------------------|----------------------|----------------------|
    ----------------------|-----------------4----|----------------------|
    
                                                                         
    ----4----4----4--3----|----2----2----2----2--|----2----2--0----2----|
    -----------------3----|----------------------|----------------------|
    ----6----6----6--4----|----3----3----3----3--|----3----3--1----4----|
    ----------------------|----------------------|----------------------|
    ----------------------|----------------------|----------------------|
    ----------------------|----------------------|----------------------|
    
                                                                        
    ----2----2----2----2--|----2----2----2----------|------------------|
    ----------------------|-------------------------|------------------|
    ----3----3----3----3--|----3----3----3----------|------------------|
    ----------------------|-------------------------|------------------|
    ----------------------|-----------------8-7-6-5-|------------------|
    ----------------------|-------------------------|------------------|
    
                                                                                
    ------------------|------------------|------------------|------------------|
    ------------------|------------------|------------------|------------------|
    ------------------|------------------|------------------|------------------|
    ------------------|------------------|------------------|------------------|
    ------------------|------------------|------------------|------------------|
    ------------------|------------------|------------------|------------------|
    
                                                                                
    ------------------|------------------|------------------|------------------|
    ------------------|------------------|------------------|------------------|
    ------------------|------------------|------------------|------------------|
    ------------------|------------------|------------------|------------------|
    ------------------|------------------|------------------|------------------|
    ------------------|------------------|------------------|------------------|
    
                                                                                
    ------------------|------------------|------------------|------------------|
    ------------------|------------------|------------------|------------------|
    ------------------|------------------|------------------|------------------|
    ------------------|------------------|------------------|------------------|
    ------------------|------------------|------------------|------------------|
    ------------------|------------------|------------------|------------------|
    
                                                                                
    
    Узнай ВСЕ о своем друге в ВК или FB
    ------------------|------------------|------------------|------------------| ------------------|------------------|------------------|------------------| ------------------|------------------|------------------|------------------| ------------------|------------------|------------------|------------------| ------------------|------------------|------------------|------------------| ------------------|------------------|------------------|------------------| ------------------|------------------|------------------|------------------| ------------------|------------------|------------------|------------------| ------------------|------------------|------------------|------------------| ------------------|------------------|------------------|------------------| ------------------|------------------|------------------|------------------| ------------------|------------------|------------------|------------------| ------------------|--4----------------|----------2--------|--4----------------| ------------------|--5----------------|----------2--------|--4----------------| ------------------|--6----------------|----------2--------|--5----------------| ------------------|-------------------|-------------------|-------------------| ------------------|-------------------|-------------------|-------------------| ------------------|-------------------|-------------------|-------------------| ------------------|--4----------------|----------2--------|--4----------------| ------------------|--5----------------|----------2--------|--4----------------| ------------------|--6----------------|----------2--------|--5----------------| ------------------|-------------------|-------------------|-------------------| ------------------|-------------------|-------------------|-------------------| ------------------|-------------------|-------------------|-------------------| ------------------|------------------|------------------|------------------| ------------------|------------------|------------------|------------------| ------------------|------------------|------------------|------------------| ------------------|------------------|------------------|------------------| ------------------|------------------|------------------|------------------| ------------------|------------------|------------------|------------------| ------------------|--4----------------|----------2--------|--4----------------| ------------------|--5----------------|----------2--------|--4----------------| ------------------|--6----------------|----------2--------|--5----------------| ------------------|-------------------|-------------------|-------------------| ------------------|-------------------|-------------------|-------------------| ------------------|-------------------|-------------------|-------------------| ------------------|--4----------------|--7--------9---------| ------------------|--5----------------|--8--------10--------| ------------------|--6----------------|--9--------11--------| ------------------|-------------------|---------------------| ------------------|-------------------|---------------------| ------------------|-------------------|---------------------| --4----------------|--2---------4--4--4--4-|--4----------------| --5----------------|--4---------5--5--5--5-|--5----------------| --6----------------|--4---------6--6--6--6-|--6----------------| -------------------|-----------------------|-------------------| -------------------|-----------------------|-------------------| -------------------|-----------------------|-------------------| --7---------9---9---9---9--|--4----------------|--2---------4--4--4--4-| --8---------10--10--10--10-|--5----------------|--4---------4--4--4--4-| --9---------11--11--11--11-|--6----------------|--4---------5--5--5--5-| ---------------------------|-------------------|-----------------------| ---------------------------|-------------------|-----------------------| ---------------------------|-------------------|-----------------------| ------------------|------------------|------------------|------------------| ------------------|------------------|------------------|------------------| ------------------|------------------|------------------|------------------| ------------------|------------------|------------------|------------------| ------------------|------------------|------------------|------------------| ------------------|------------------|------------------|------------------| ------------------|------------------|------------------|------------------| ------------------|------------------|------------------|------------------| ------------------|------------------|------------------|------------------| ------------------|------------------|------------------|------------------| ------------------|------------------|------------------|------------------| ------------------|------------------|------------------|------------------| ------------------|| ------------------|| ------------------|| ------------------|| ------------------|| ------------------||

    найти лекарство
    список лекарств






    О сайтеАккордыХит-парадПоискУроки ФорумыИщу песню
    ПрограммыСвежачок-сПодпискаСтатьи
    Яндекс.Метрика