Табулатура Nightwish | The Kinslayer  (3) гитара табулатуры уроки тексты песен Nightwish текст lyrics песня аккорды песни ноты нота электрогитара струна  
   А Б В Г Д Е Ж З И К Л М Н О П Р С Т У Ф Х Ч Ш Ы Э Ю Я       Разные песни
1-9 A B C D E F G H I J K L M N O P Q R S T U V W Y Z      Все исполнители in english

    



группа Nightwish, Табулатура песни The Kinslayer (3)

Работа в Европе для граждан РФ, Украины, СНГ

  • минимальная зарплата $500.
  • виза и контракт на полгода, возможно продление
  • проживание оплачивает работодатель
  • нужен только загранпаспорт
  • оформление 190 €
  • данное предложение - отличная возможность эмигрировать в Европу и закрепиться здесь навсегда.

  • Мы свяжемся с Вами по WhatsApp или Viber и ответим на любые вопросы.
    на нашем сайте можно почитать подробнее »

    Группа: Nightwish - другие аккорды (414),   о группе (12 статей),   диски (6),   фотографии (25)
    Табулатура песни: The Kinslayer (3)
    Просмотров: 1137
    Подобрал: Forever (forever@akkords.ru)




        
                                      Kinslayer                                     
    
                                                                         
    Keyboard 1.
    
                                                                             
    E||--0-0-7-0-7-8-0-5-7-0-3-5-0-5-7-0-|--8-0-7-----7-5---5-3---2---------|
    B||----------------------------------|--------3-7-----3-----3---3-5-5-5-|
    G||----------------------------------|----------------------------------|
    D||----------------------------------|----------------------------------|
    A||----------------------------------|----------------------------------|
    E||----------------------------------|----------------------------------|
    
                                                                
    --7-0-7-8-0-5-7-0-3-5-0-5-7-0-8-0-|--7-0-2-7-5-0-5-3--2--0-|
    ----------------------------------|------------------------|
    ----------------------------------|------------------------|
    ----------------------------------|------------------------|
    ----------------------------------|------------------------|
    ----------------------------------|------------------------|
    
                                                                          
    --0-0-7-0-7-8-0-5-7-0-3-5-0-5-7-0-|--8-0-7-----7-5---5-3---2---------|
    ----------------------------------|--------3-7-----3-----3---3-5-5-5-|
    ----------------------------------|----------------------------------|
    ----------------------------------|----------------------------------|
    ----------------------------------|----------------------------------|
    ----------------------------------|----------------------------------|
    
                                                                                   
    --7-0-7-8-0-5-7-0-3-5-0-5-7-0-8-0-|--7-0-2-7-5-0-5-3--2--0-|------------------|
    ----------------------------------|------------------------|------------------|
    ----------------------------------|------------------------|------------------|
    ----------------------------------|------------------------|------------------|
    ----------------------------------|------------------------|------------------|
    ----------------------------------|------------------------|------------------|
    
                                                                                
    ------------------|------------------|------------------|------------------|
    ------------------|------------------|------------------|------------------|
    ------------------|------------------|------------------|------------------|
    ------------------|------------------|------------------|------------------|
    ------------------|------------------|------------------|------------------|
    ------------------|------------------|------------------|------------------|
    
                                                                                
    ------------------|------------------|------------------|------------------|
    ------------------|------------------|------------------|------------------|
    ------------------|------------------|------------------|------------------|
    ------------------|------------------|------------------|------------------|
    ------------------|------------------|------------------|------------------|
    ------------------|------------------|------------------|------------------|
    
                                                                                
    ------------------|------------------|------------------|------------------|
    ------------------|------------------|------------------|------------------|
    ------------------|------------------|------------------|------------------|
    ------------------|------------------|------------------|------------------|
    ------------------|------------------|------------------|------------------|
    ------------------|------------------|------------------|------------------|
    
                                                                                
    ------------------|------------------|------------------|------------------|
    ------------------|------------------|------------------|------------------|
    ------------------|------------------|------------------|------------------|
    ------------------|------------------|------------------|------------------|
    ------------------|------------------|------------------|------------------|
    ------------------|------------------|------------------|------------------|
    
                                                                                
    ------------------|------------------|------------------|------------------|
    ------------------|------------------|------------------|------------------|
    ------------------|------------------|------------------|------------------|
    ------------------|------------------|------------------|------------------|
    ------------------|------------------|------------------|------------------|
    ------------------|------------------|------------------|------------------|
    
                                                                                
    ------------------|------------------|------------------|------------------|
    ------------------|------------------|------------------|------------------|
    ------------------|------------------|------------------|------------------|
    ------------------|------------------|------------------|------------------|
    ------------------|------------------|------------------|------------------|
    ------------------|------------------|------------------|------------------|
    
                                                                                
    ------------------|------------------|------------------|------------------|
    ------------------|------------------|------------------|------------------|
    ------------------|------------------|------------------|------------------|
    ------------------|------------------|------------------|------------------|
    ------------------|------------------|------------------|------------------|
    ------------------|------------------|------------------|------------------|
    
                                                                                
    ------------------|------------------|------------------|------------------|
    ------------------|------------------|------------------|------------------|
    ------------------|------------------|------------------|------------------|
    ------------------|------------------|------------------|------------------|
    ------------------|------------------|------------------|------------------|
    ------------------|------------------|------------------|------------------|
    
                                                                                
    ------------------|------------------|------------------|------------------|
    ------------------|------------------|------------------|------------------|
    ------------------|------------------|------------------|------------------|
    ------------------|------------------|------------------|------------------|
    ------------------|------------------|------------------|------------------|
    ------------------|------------------|------------------|------------------|
    
                                                        
    ------------------|--7-0-0-7-0-0-7-0-7-0-7-0-5--5--|
    ------------------|--------------------------------|
    ------------------|--------------------------------|
    
    Узнай ВСЕ о своем друге в ВК или FB
    ------------------|--------------------------------| ------------------|--------------------------------| ------------------|--------------------------------| --7-0-0-7-0-0-7-0-7-0-7-0-8-8-10-10-|--7-0-0-7-0-0-7-0-7-0-7-0-5--5--| ------------------------------------|--------------------------------| ------------------------------------|--------------------------------| ------------------------------------|--------------------------------| ------------------------------------|--------------------------------| ------------------------------------|--------------------------------| --7-0-0-7-0-0-7-0-8--8--6--6--|--7-0-0-7-0-0-7-0-7-0-7-0-5--5--| ------------------------------|--------------------------------| ------------------------------|--------------------------------| ------------------------------|--------------------------------| ------------------------------|--------------------------------| ------------------------------|--------------------------------| --7-0-0-7-0-0-7-0-7-0-7-0-8-8-10-10-|--7-0-0-7-0-0-7-0-7-0-7-0-5--5--| ------------------------------------|--------------------------------| ------------------------------------|--------------------------------| ------------------------------------|--------------------------------| ------------------------------------|--------------------------------| ------------------------------------|--------------------------------| --7-0-0-7-0-0-7-0-8--8--6--6--|------------------|------------------| ------------------------------|------------------|------------------| ------------------------------|------------------|------------------| ------------------------------|------------------|------------------| ------------------------------|------------------|------------------| ------------------------------|------------------|------------------| ------------------|------------------|------------------|------------------| ------------------|------------------|------------------|------------------| ------------------|------------------|------------------|------------------| ------------------|------------------|------------------|------------------| ------------------|------------------|------------------|------------------| ------------------|------------------|------------------|------------------| ------------------|------------------|--7-0-0-7-0-0-7-0-7-0-7-0-5--5--| ------------------|------------------|--------------------------------| ------------------|------------------|--------------------------------| ------------------|------------------|--------------------------------| ------------------|------------------|--------------------------------| ------------------|------------------|--------------------------------| --7-0-0-7-0-0-7-0-7-0-7-0-8-8-10-10-|--7-0-0-7-0-0-7-0-7-0-7-0-5--5--| ------------------------------------|--------------------------------| ------------------------------------|--------------------------------| ------------------------------------|--------------------------------| ------------------------------------|--------------------------------| ------------------------------------|--------------------------------| --7-0-0-7-0-0-7-0-8--8--6--6--|------------------|------------------| ------------------------------|------------------|------------------| ------------------------------|------------------|------------------| ------------------------------|------------------|------------------| ------------------------------|------------------|------------------| ------------------------------|------------------|------------------| ------------------|------------------|------------------|------------------| ------------------|------------------|------------------|------------------| ------------------|------------------|------------------|------------------| ------------------|------------------|------------------|------------------| ------------------|------------------|------------------|------------------| ------------------|------------------|------------------|------------------| ------------------|------------------|------------------|------------------| ------------------|------------------|------------------|------------------| ------------------|------------------|------------------|------------------| ------------------|------------------|------------------|------------------| ------------------|------------------|------------------|------------------| ------------------|------------------|------------------|------------------| ------------------|------------------|------------------|------------------| ------------------|------------------|------------------|------------------| ------------------|------------------|------------------|------------------| ------------------|------------------|------------------|------------------| ------------------|------------------|------------------|------------------| ------------------|------------------|------------------|------------------| ------------------|------------------|------------------|------------------| ------------------|------------------|------------------|------------------| ------------------|------------------|------------------|------------------| ------------------|------------------|------------------|------------------| ------------------|------------------|------------------|------------------| ------------------|------------------|------------------|------------------| ------------------|------------------|------------------|| ------------------|------------------|------------------|| ------------------|------------------|------------------|| ------------------|------------------|------------------|| ------------------|------------------|------------------|| ------------------|------------------|------------------||

    найти лекарство
    список лекарств






    О сайтеАккордыХит-парадПоискУроки ФорумыИщу песню
    ПрограммыСвежачок-сПодпискаСтатьи
    Яндекс.Метрика