Табулатура Nightwish | The Kinslayer  (2) гитара табулатуры уроки тексты песен Nightwish текст lyrics песня аккорды песни ноты нота электрогитара струна  
   А Б В Г Д Е Ж З И К Л М Н О П Р С Т У Ф Х Ч Ш Ы Э Ю Я       Разные песни
1-9 A B C D E F G H I J K L M N O P Q R S T U V W Y Z      Все исполнители in english

    



группа Nightwish, Табулатура песни The Kinslayer (2)

Работа в Европе для граждан РФ, Украины, СНГ

  • минимальная зарплата $500.
  • виза и контракт на полгода, возможно продление
  • проживание оплачивает работодатель
  • нужен только загранпаспорт
  • оформление 190 €
  • данное предложение - отличная возможность эмигрировать в Европу и закрепиться здесь навсегда.

  • Мы свяжемся с Вами по WhatsApp или Viber и ответим на любые вопросы.
    на нашем сайте можно почитать подробнее »

    Группа: Nightwish - другие аккорды (414),   о группе (12 статей),   диски (6),   фотографии (25)
    Табулатура песни: The Kinslayer (2)
    Просмотров: 1395
    Подобрал: Forever (forever@akkords.ru)




        
                                      Kinslayer                                     
    
                                                                         
    Guitar
    
                                                                         
    E||---------------------|-----------------------|-------------------|
    B||---------------------|-----------------------|-------------------|
    G||---------------2-----|----4----7-------------|-----------2-------|
    D||--2-2----------2-----|----4----7-------2-2-2-|-----------2-------|
    A||--2-2----------0-----|----2----5-------2-2-2-|-----------0-------|
    E||--0-0----------------|-----------------0-0-0-|-------------------|
    
                                                                      
    -------------------|---------------------|-----------------------|
    -------------------|---------------------|-----------------------|
    --4----7-----------|---------------2-----|----4----7-------------|
    --4----7---5--4--2-|--2-2----------2-----|----4----7-------2-2-2-|
    --2----5---5--4--2-|--2-2----------0-----|----2----5-------2-2-2-|
    -----------3--2--0-|--0-0----------------|-----------------0-0-0-|
    
                                                                                
    -------------------|-------------------|-----------------------------------|
    -------------------|-------------------|-----------------------------------|
    -----------2-------|--4----7-----------|-----------------------------------|
    -----------2-------|--4----7---5--4--2-|-----------------------------------|
    -----------0-------|--2----5---5--4--2-|--7-----7-----10---9---5---7---9---|
    -------------------|-----------3--2--0-|----7-7---7-7----7---7---7---7---7-|
    
                                                                              
    -------------------------------------|-----------------------------------|
    -------------------------------------|-----------------------------------|
    -------------------------------------|-----------------------------------|
    ----------------9--------------9---9-|-----------------------------------|
    --10-----10--------12--10-9-10---9---|--7-----7-----10---9---5---7---9---|
    -----7-7----7-7----------------------|----7-7---7-7----7---7---7---7---7-|
    
                                                                             
    -------------------------------------|----------------------------------|
    -------------------------------------|----------------------------------|
    -------------------------------------|----------------------------------|
    ----------------9--------------9---9-|----------------------------------|
    --10-----10--------12--10-9-10---9---|--4-----4-----7---6---2---4---6---|
    -----7-7----7-7----------------------|----4-4---4-4---4---4---4---4---4-|
    
                                                                        
    --------------------------------|----------------------------------|
    --------------------------------|----------------------------------|
    --------------------------------|----------------------------------|
    --------------6-----------6---6-|----------------------------------|
    --7-----7--------9--7-6-7---6---|--4-----4-----7---6---2---4---6---|
    ----4-4---4-4-------------------|----4-4---4-4---4---4---4---4---4-|
    
                                                                        
    --------------------------------|----------------------------------|
    --------------------------------|----------------------------------|
    --------------------------------|----------------------------------|
    --------------6-----------6---6-|----------------------------------|
    --7-----7--------9--7-6-7---6---|--4-------4-------4-------7-6-4-3-|
    ----4-4---4-4-------------------|----5-4-5---5-4-5---5-4-5---------|
    
                                                                          
    ----------------------------------|----------------------------------|
    ----------------------------------|----------------------------------|
    ----------------------------------|----------------------------------|
    ----------------------------------|----------------------------------|
    --4-------4-------4-------------3-|--4-------4-------4-------7-6-4-3-|
    ----5-4-5---5-4-5---5-4-5-3-4-5---|----5-4-5---5-4-5---5-4-5---------|
    
                                                                          
    ----------------------------------|----------------------------------|
    ----------------------------------|----------------------------------|
    ----------------------------------|----------------------------------|
    ----------------------------------|--4-------4-------4-------7-6-4-3-|
    --4-------4-------4-------4-5-6-7-|----5-4-5---5-4-5---5-4-5---------|
    ----5-4-5---5-4-5---5-4-5---------|----------------------------------|
    
                                                                          
    ----------------------------------|----------------------------------|
    ----------------------------------|----------------------------------|
    ----------------------------------|----------------------------------|
    --4-------4-------4-------------3-|--4-------4-------4-------7-6-4-3-|
    ----5-4-5---5-4-5---5-4-5-3-4-5---|----5-4-5---5-4-5---5-4-5---------|
    ----------------------------------|----------------------------------|
    
                                                                      
    ----------------------------------|------------------------------|
    ----------------------------------|------------------------------|
    ----------------------------------|------6------6------6------6--|
    --4-------4-------4-------8-7-6-5-|------6------6------6------6--|
    ----5-4-5---5-4-5---5-4-5---------|--4-4-4--4-4-4--4-4-4--4-4-4--|
    ----------------------------------|------------------------------|
    
                                                                
    ----------------------------|------------------------------|
    ----------------------------|------------------------------|
    ------6------6------6-------|------6------6------6------6--|
    ------6------6------6--6----|------6------6------6------6--|
    --4-4-4--4-4-4--4-4-4--6----|--4-4-4--4-4-4--4-4-4--4-4-4--|
    -----------------------4----|------------------------------|
    
                                                                
    ----------------------------|------------------------------|
    ----------------------------|------------------------------|
    ------6------6------6-------|------------------------------|
    ------6------6------6--5----|------4------4------4------4--|
    --4-4-4--4-4-4--4-4-4--5----|------4------4------4------4--|
    -----------------------3----|--2-2-2--2-2-2--2-2-2--2-2-2--|
    
                                                              
    --------------------------|------------------------------|
    --------------------------|------------------------------|
    ---------------------4----|------------------------------|
    ------4------4--2----4----|------4------4------4------4--|
    ------4------4--2----2----|------4------4------4------4--|
    --2-2-2--2-2-2--0---------|--2-2-2--2-2-2--2-2-2--2-2-2--|
    
                                                                        
    -------------------------------|-----------------------------------|
    -------------------------------|-----------------------------------|
    -------------------------------|-----------------------------------|
    ------4------4------4----------|-----------------------------------|
    ------4------4------4--8-7-6-5-|--7-----7-----10---9---5---7---9---|
    --2-2-2--2-2-2--2-2-2----------|----7-7---7-7----7---7---7---7---7-|
    
                                                                              
    -------------------------------------|-----------------------------------|
    -------------------------------------|-----------------------------------|
    -------------------------------------|-----------------------------------|
    ----------------9--------------9---9-|-----------------------------------|
    --10-----10--------12--10-9-10---9---|--7-----7-----10---9---5---7---9---|
    -----7-7----7-7----------------------|----7-7---7-7----7---7---7---7---7-|
    
                                                                        
    -------------------------------------|-----------------------------|
    -------------------------------------|-----------------------------|
    -------------------------------------|-----------------------------|
    ----------------9--------------9---9-|--6-6--6-6--6-6--6-6--6-6--6-|
    --10-----10--------12--10-9-10---9---|--4-4--4-4--4-4--4-4--4-4--4-|
    -----7-7----7-7----------------------|-----------------------------|
    
                                                                 
    -----------------------------|------------------------------|
    -----------------------------|------------------------------|
    -------------------6------7--|------------------------------|
    --6--6-6--6-6--6-6-6--6-6-7--|--9-9--9-9--9-9--9-9--9-9-9-9-|
    --4--4-4--4-4--4-4-4--4-4-5--|--7-7--7-7--7-7--7-7--7-7-7-7-|
    -----------------------------|------------------------------|
    
                                                                              
    ------------------------------------------|------------------------------|
    ------------------------------------------|------------------------------|
    ------------------------------------------|------------------------------|
    --12-12--12-12--12-12--14-14--14-14-14-14-|--9-9--9-9--9-9--9-9--9-9-9-9-|
    --10-10--10-10--10-10--12-12--12-12-12-12-|--7-7--7-7--7-7--7-7--7-7-7-7-|
    ------------------------------------------|------------------------------|
    
                                                                
    ----------------------------|------------------------------|
    ----------------------------|------------------------------|
    ----------------------------|------------------------------|
    --7-7--7-7--7-7--5--5--5--5-|--9-9--9-9--9-9--9-9--9-9-9-9-|
    --5-5--5-5--5-5--3--3--3--3-|--7-7--7-7--7-7--7-7--7-7-7-7-|
    ----------------------------|------------------------------|
    
                                                                              
    ------------------------------------------|------------------------------|
    ------------------------------------------|------------------------------|
    ------------------------------------------|------------------------------|
    --12-12--12-12--12-12--14-14--14-14-14-14-|--9-9--9-9--9-9--9-9--9-9-9-9-|
    --10-10--10-10--10-10--12-12--12-12-12-12-|--7-7--7-7--7-7--7-7--7-7-7-7-|
    ------------------------------------------|------------------------------|
    
                                                                             
    
    Узнай ВСЕ о своем друге в ВК или FB
    ----------------------------|---------------------|---------------------| ----------------------------|---------------------|---------------------| ----------------------------|---------------------|---------------------| --7-7--7-7--7-7--4--4--4--4-|--9------------7--7--|--9---------------7--| --5-5--5-5--5-5--2--2--2--2-|--7------------5--5--|--7------------7--5--| ----------------------------|---------------------|---------------5-----| ---------------------|-----------------------|---------------------| ---------------------|-----------------------|---------------------| ---------------------|-----------------------|---------------------| --9------------7--7--|--9--------------8--8--|--9------------7--7--| --7------------5--5--|--7--------7--7--6--6--|--7------------5--5--| ---------------------|-----------5--5--------|---------------------| ---------------------|---------------------|-----------------------| ---------------------|---------------------|-----------------------| ---------------------|---------------------|-----------------------| --9---------------7--|--9------------7--7--|--9--------------8--8--| --7------------7--5--|--7------------5--5--|--7--------7--7--6--6--| ---------------5-----|---------------------|-----------5--5--------| ----------------------------------|--------------------------------| ----------------------------------|--------------------------------| ----------------------------------|--------------------------------| ----------------------------------|--------------6-----------6---6-| --4-----4-----7---6---2---4---6---|--7-----7--------9--7-6-7---6---| ----4-4---4-4---4---4---4---4---4-|----4-4---4-4-------------------| -------------------|------------------|----------------------------------| -------------------|------------------|----------------------------------| -------------------|------------------|----------------------------------| --6----------------|------------------|----------------------------------| --6----------------|------------------|--4-----4-----7---6---2---4---6---| --4----------------|------------------|----4-4---4-4---4---4---4---4---4-| --------------------------------|-------------------|------------------| --------------------------------|-------------------|------------------| --------------------------------|-------------------|------------------| --------------6-----------6---6-|--6----------------|------------------| --7-----7--------9--7-6-7---6---|--6----------------|------------------| ----4-4---4-4-------------------|--4----------------|------------------| --------------------------------|--------------------------------| --------------------------------|--------------------------------| --------------------------------|--------------------------------| --9-----------------------7--7--|--9--------------------------7--| --7-7-7-7-7-7-7-7-7-7-7-7-5--5--|--7-7-7-7-7-7-7-7-7-7-7-7-7--5--| --------------------------------|--------------------------5-----| --------------------------------|--------------------------------| --------------------------------|--------------------------------| --------------------------------|--------------------------------| --9-----------------------7--7--|--9--------------------------8--| --7-7-7-7-7-7-7-7-7-7-7-7-5--5--|--7-7-7-7-7-7-7-7-7-7-7-7-7--6--| --------------------------------|--------------------------5-----| ----------------------------------|--------------------------------| ----------------------------------|--------------------------------| ----------------------------------|--------------------------------| ----------------------------------|--------------6-----------6---6-| --4-----4-----7---6---2---4---6---|--7-----7--------9--7-6-7---6---| ----4-4---4-4---4---4---4---4---4-|----4-4---4-4-------------------| -------------------|------------------|------------------------------| -------------------|------------------|------------------------------| -------------------|------------------|------------------------------| --6----------------|------------------|--6-6--6-6--6-6--6-6--6-6-6-6-| --6----------------|------------------|--4-4--4-4--4-4--4-4--4-4-4-4-| --4----------------|------------------|------------------------------| ------------------------------------|------------------------------| ------------------------------------|------------------------------| ------------------------------------|------------------------------| --9-9--9-9--9-9--11-11--11-11-11-11-|--6-6--6-6--6-6--6-6--6-6-6-6-| --7-7--7-7--7-7--9--9---9--9--9--9--|--4-4--4-4--4-4--4-4--4-4-4-4-| ------------------------------------|------------------------------| ----------------------------|------------------------------| ----------------------------|------------------------------| -----------------6--6--6--6-|------------------------------| --4-4--4-4--4-4--6--6--6--6-|--6-6--6-6--6-6--6-6--6-6-6-6-| --2-2--2-2--2-2--4--4--4--4-|--4-4--4-4--4-4--4-4--4-4-4-4-| ----------------------------|------------------------------| --------------------------------|------------------------------| --------------------------------|------------------------------| -----------------11--11--11--11-|------------------------------| --9-9--9-9--9-9--11--11--11--11-|--6-6--6-6--6-6--6-6--6-6-6-6-| --7-7--7-7--7-7--9---9---9---9--|--4-4--4-4--4-4--4-4--4-4-4-4-| --------------------------------|------------------------------| ----------------------------|----------------------------------------------| ----------------------------|----------------------------------------------| ----------------------------|----------6----------6----------6----------6--| --4-4--4-4--4-4--6--6--6--6-|----------6----------6----------6----------6--| --2-2--2-2--2-2--6--6--6--6-|--4-4-4-4-4--4-4-4-4-4--4-4-4-4-4--4-4-4-4-4--| -----------------4--4--4--4-|----------------------------------------------| ----------------------------------------| ----------------------------------------| ----------6----------6----------6-------| ----------6----------6----------6--6----| --4-4-4-4-4--4-4-4-4-4--4-4-4-4-4--6----| -----------------------------------4----| ----------------------------------------------| ----------------------------------------------| ----------6----------6----------6----------6--| ----------6----------6----------6----------6--| --4-4-4-4-4--4-4-4-4-4--4-4-4-4-4--4-4-4-4-4--| ----------------------------------------------| ----------------------------------------| ----------------------------------------| ----------6----------6----------6-------| ----------6----------6----------6--5----| --4-4-4-4-4--4-4-4-4-4--4-4-4-4-4--5----| -----------------------------------3----| ----------------------------------------------| ----------------------------------------------| ----------4----------4----------4----------4--| ----------4----------4----------4----------4--| --2-2-2-2-2--2-2-2-2-2--2-2-2-2-2--2-2-2-2-2--| ----------------------------------------------| -----------------------------------------| -----------------------------------------| ----------4----------4----------4--------| ----------4----------4----------4-----5--| --2-2-2-2-2--2-2-2-2-2--2-2-2-2-2--2--3--| -----------------------------------0-----| ----------------------------------------------| ----------------------------------------------| ----------4----------4----------4----------4--| ----------4----------4----------4----------4--| --2-2-2-2-2--2-2-2-2-2--2-2-2-2-2--2-2-2-2-2--| ----------------------------------------------| -------------------------------------------|------------------|| -------------------------------------------|------------------|| ----------4----------4----------4----------|------------------|| ----------4----------4----------4----------|------------------|| --2-2-2-2-2--2-2-2-2-2--2-2-2-2-2--8-7-6-5-|------------------|| -------------------------------------------|------------------||

    найти лекарство
    список лекарств






    О сайтеАккордыХит-парадПоискУроки ФорумыИщу песню
    ПрограммыСвежачок-сПодпискаСтатьи
    Яндекс.Метрика