Басовая табулатура Nightwish | The Kinslayer гитара табулатуры уроки тексты песен Nightwish текст lyrics песня аккорды песни ноты нота электрогитара струна  
   А Б В Г Д Е Ж З И К Л М Н О П Р С Т У Ф Х Ч Ш Ы Э Ю Я       Разные песни
1-9 A B C D E F G H I J K L M N O P Q R S T U V W Y Z      Все исполнители in english

    



группа Nightwish, Басовая табулатура песни The Kinslayer

Продолжаем грести бабос на ботах в Telegram.
Только в этот раз есть вариант автоматизировать это дело, привлекая рефералов. Вы можете заработать если »

Группа: Nightwish - другие аккорды (414),   о группе (12 статей),   диски (6),   фотографии (25)
Басовая табулатура песни: The Kinslayer
Просмотров: 1416
Подобрал: Forever (forever@akkords.ru)




    
                                  Kinslayer                                     

                                                                      Tero Posio
Bass

                                                                     
G||---------------------|-----------------------|-------------------|
D||---------------------|---------0-------------|-------------------|
A||---------------0-----|----2------------------|-----------0-------|
E||--0-0----------------|-----------------0-0-0-|-------------------|

                                                                  
-------------------|---------------------|-----------------------|
-------0-----------|---------------------|---------0-------------|
--2----------------|---------------0-----|----2------------------|
-----------3--2--0-|--0-0----------------|-----------------0-0-0-|

                                                                           
-------------------|-------------------|----------------------------------|
-------------------|-------0-----------|----------------------------------|
-----------0-------|--2----------------|--2-2-2-2-2-2-2-2-2-2-2-2-2-2-2-2-|
-------------------|-----------3--2--0-|----------------------------------|

                                                                 
-----------------------------|----------------------------------|
-----------------------------|----------------------------------|
--2-2-2-2-2-2-2-2-0----------|--2-2-2-2-2-2-2-2-2-2-2-2-2-2-2-2-|
-----------------------3--2--|----------------------------------|

                                                                 
-----------------------------|----------------------------------|
-----------------------------|----------------------------------|
--2-2-2-2-2-2-2-2-0----------|----------------------------------|
-----------------------3--2--|--4-4-4-4-4-4-4-4-4-4-4-4-4-4-4-4-|

                                                                 
-----------------------------|----------------------------------|
------------------4----------|----------------------------------|
-----------------------7--6--|----------------------------------|
--4-4-4-4-4-4-4-4------------|--4-4-4-4-4-4-4-4-4-4-4-4-4-4-4-4-|

                                                                 
-----------------------------|----------------------------------|
------------------4----------|----------------------------------|
-----------------------7--6--|--4-------4-------4-------7-6-4-3-|
--4-4-4-4-4-4-4-4------------|----5-4-5---5-4-5---5-4-5---------|

                                                                      
----------------------------------|----------------------------------|
----------------------------------|----------------------------------|
--4-------4-------4-------------3-|--4-------4-------4-------7-6-4-3-|
----5-4-5---5-4-5---5-4-5-3-4-5---|----5-4-5---5-4-5---5-4-5---------|

                                                                      
----------------------------------|----------------------------------|
----------------------------------|--4-------4-------4-------7-6-4-3-|
--4-------4-------4-------4-5-6-7-|----5-4-5---5-4-5---5-4-5---------|
----5-4-5---5-4-5---5-4-5---------|----------------------------------|

                                                                      
----------------------------------|----------------------------------|
--4-------4-------4-------------3-|--4-------4-------4-------7-6-4-3-|
----5-4-5---5-4-5---5-4-5-3-4-5---|----5-4-5---5-4-5---5-4-5---------|
----------------------------------|----------------------------------|

                                                                  
----------------------------------|------------------------------|
--4-------4-------4-------8-7-6-5-|------------------------------|
----5-4-5---5-4-5---5-4-5---------|--4-4-4--4-4-4--4-4-4--4-4-4--|
----------------------------------|------------------------------|

                                                            
----------------------------|------------------------------|
----------------------------|------------------------------|
--4-4-4--4-4-4--4-4-4-------|--4-4-4--4-4-4--4-4-4--4-4-4--|
-----------------------4----|------------------------------|

                                                            
----------------------------|------------------------------|
----------------------------|------------------------------|
--4-4-4--4-4-4--4-4-4-------|------------------------------|
-----------------------3----|--2-2-2--2-2-2--2-2-2--2-2-2--|

                                                          
--------------------------|------------------------------|
--------------------------|------------------------------|
---------------------2----|------------------------------|
--2-2-2--2-2-2--0---------|--2-2-2--2-2-2--2-2-2--2-2-2--|

                                                                   
-------------------------------|----------------------------------|
-------------------------------|----------------------------------|
-----------------------8-7-6-5-|--2-2-2-2-2-2-2-2-2-2-2-2-2-2-2-2-|
--2-2-2--2-2-2--2-2-2----------|----------------------------------|

                                                                 
-----------------------------|----------------------------------|
-----------------------------|----------------------------------|
--2-2-2-2-2-2-2-2-0----------|--2-2-2-2-2-2-2-2-2-2-2-2-2-2-2-2-|
-----------------------3--2--|----------------------------------|

                                                            
-----------------------------|-----------------------------|
-----------------------------|-----------------------------|
--2-2-2-2-2-2-2-2-0----------|--4-4--4-4--4-4--4-4--4-4--4-|
-----------------------3--2--|-----------------------------|

                                                             
-----------------------------|------------------------------|
--------------------------0--|--2-2--2-2--2-2--2-2--2-2-2-2-|
--4--4-4--4-4--4-4-4--4-4----|------------------------------|
-----------------------------|------------------------------|

                                                              
--0-0--0-0--0-0--2-2--2-2-2-2-|------------------------------|
------------------------------|--2-2--2-2--2-2--2-2--2-2-2-2-|
------------------------------|------------------------------|
------------------------------|------------------------------|

                                                            
----------------------------|------------------------------|
--0-0--0-0--0-0-------------|--2-2--2-2--2-2--2-2--2-2-2-2-|
-----------------3--3--3--3-|------------------------------|
----------------------------|------------------------------|

                                                              
--0-0--0-0--0-0--2-2--2-2-2-2-|------------------------------|
------------------------------|--2-2--2-2--2-2--2-2--2-2-2-2-|
------------------------------|------------------------------|
------------------------------|------------------------------|

                                                                         
----------------------------|---------------------|---------------------|
--0-0--0-0--0-0-------------|---------------------|---------------------|

Продолжаем грести бабос на ботах в Telegram.
Только в этот раз есть вариант автоматизировать это дело, привлекая рефералов. Вы можете заработать если »

-----------------2--2--2--2-|--7------------5--5--|--7---------------5--| ----------------------------|---------------------|---------------5-----| ---------------------|-----------------------|--------------------------------| ---------------------|-----------------------|--------------------------------| --7------------5--5--|--7--------------6--6--|--7-7-7-7-7-7-7-7-7-7-7-7-5--5--| ---------------------|-----------5--5--------|--------------------------------| --------------------------------|--------------------------------| --------------------------------|--------------------------------| --7-7-7-7-7-7-7-7-7-7-7-7-5--5--|--7-7-7-7-7-7-7-7-7-7-7-7-5--5--| --------------------------------|--------------------------------| ------------------------------|----------------------------------| ------------------------------|----------------------------------| --7-7-7-7-7-7-7-7-------6--6--|----------------------------------| ------------------5--5--------|--4-4-4-4-4-4-4-4-4-4-4-4-4-4-4-4-| -----------------------------|-------------------|------------------| ------------------4----------|-------------------|------------------| -----------------------7--6--|-------------------|------------------| --4-4-4-4-4-4-4-4------------|--4----------------|------------------| ----------------------------------|-----------------------------| ----------------------------------|------------------4----------| ----------------------------------|-----------------------7--6--| --4-4-4-4-4-4-4-4-4-4-4-4-4-4-4-4-|--4-4-4-4-4-4-4-4------------| -------------------|------------------|--------------------------------| -------------------|------------------|--------------------------------| -------------------|------------------|--7-7-7-7-7-7-7-7-7-7-7-7-5--5--| --4----------------|------------------|--------------------------------| --------------------------------|--------------------------------| --------------------------------|--------------------------------| --7-7-7-7-7-7-7-7-7-7-7-7----5--|--7-7-7-7-7-7-7-7-7-7-7-7-5--5--| --------------------------5-----|--------------------------------| --------------------------------|----------------------------------| --------------------------------|----------------------------------| --7-7-7-7-7-7-7-7-7-7-7-7----6--|----------------------------------| --------------------------5-----|--4-4-4-4-4-4-4-4-4-4-4-4-4-4-4-4-| -----------------------------|-------------------|------------------| ------------------4----------|-------------------|------------------| -----------------------7--6--|-------------------|------------------| --4-4-4-4-4-4-4-4------------|--4----------------|------------------| ------------------------------|------------------------------| ------------------------------|--2-2--2-2--2-2--4-4--4-4-4-4-| --4-4--4-4--4-4--4-4--4-4-4-4-|------------------------------| ------------------------------|------------------------------| ------------------------------|----------------------------| ------------------------------|----------------------------| --4-4--4-4--4-4--4-4--4-4-4-4-|--2-2--2-2--2-2--4--4--4--4-| ------------------------------|----------------------------| ------------------------------|----------------------------| ------------------------------|--2-2--2-2--2-2--4--4--4--4-| --4-4--4-4--4-4--4-4--4-4-4-4-|----------------------------| ------------------------------|----------------------------| ------------------------------|----------------------------| ------------------------------|----------------------------| --4-4--4-4--4-4--4-4--4-4-4-4-|--2-2--2-2--2-2-------------| ------------------------------|-----------------4--4--4--4-| ----------------------------------------------| ----------------------------------------------| --4-4-4-4-4--4-4-4-4-4--4-4-4-4-4--4-4-4-4-4--| ----------------------------------------------| ----------------------------------------| ----------------------------------------| --4-4-4-4-4--4-4-4-4-4--4-4-4-4-4-------| -----------------------------------4----| ----------------------------------------------| ----------------------------------------------| --4-4-4-4-4--4-4-4-4-4--4-4-4-4-4--4-4-4-4-4--| ----------------------------------------------| ----------------------------------------| ----------------------------------------| --4-4-4-4-4--4-4-4-4-4--4-4-4-4-4-------| -----------------------------------3----| ----------------------------------------------| ----------------------------------------------| ----------------------------------------------| --2-2-2-2-2--2-2-2-2-2--2-2-2-2-2--2-2-2-2-2--| -----------------------------------------| -----------------------------------------| --------------------------------------3--| --2-2-2-2-2--2-2-2-2-2--2-2-2-2-2--0-----| ----------------------------------------------| ----------------------------------------------| ----------------------------------------------| --2-2-2-2-2--2-2-2-2-2--2-2-2-2-2--2-2-2-2-2--| -------------------------------------------|------------------|| -----------------------------------3-2-1-0-|------------------|| -------------------------------------------|------------------|| --2-2-2-2-2--2-2-2-2-2--2-2-2-2-2----------|------------------||

поиск лекарств
список лекарств






О сайтеАккордыХит-парадПоискУроки ФорумыИщу песню
ПрограммыСвежачок-сПодпискаСтатьи
Яндекс.Метрика