Табулатура Nightwish | Stargazers гитара табулатуры уроки тексты песен Nightwish текст lyrics песня аккорды песни ноты нота электрогитара струна  
   А Б В Г Д Е Ж З И К Л М Н О П Р С Т У Ф Х Ч Ш Ы Э Ю Я       Разные песни
1-9 A B C D E F G H I J K L M N O P Q R S T U V W Y Z      Все исполнители in english

    



группа Nightwish, Табулатура песни Stargazers

Работа в Европе для граждан РФ, Украины, СНГ

  • минимальная зарплата $500.
  • виза и контракт на полгода, возможно продление
  • проживание оплачивает работодатель
  • нужен только загранпаспорт
  • оформление 190 €
  • данное предложение - отличная возможность эмигрировать в Европу и закрепиться здесь навсегда.

  • Мы свяжемся с Вами по WhatsApp или Viber и ответим на любые вопросы.
    на нашем сайте можно почитать подробнее »

    Группа: Nightwish - другие аккорды (414),   о группе (12 статей),   диски (6),   фотографии (25)
    Табулатура песни: Stargazers
    Просмотров: 1337
    Подобрал: Forever (forever@akkords.ru)




        
                                      Stargazers                                    
    
                                                                           Nightwish
    Guitar Solo
    
                                                                                   
    E||------------------|------------------|------------------|------------------|
    B||------------------|------------------|------------------|------------------|
    G||------------------|------------------|------------------|------------------|
    D||------------------|------------------|------------------|------------------|
    A||------------------|------------------|------------------|------------------|
    E||------------------|------------------|------------------|------------------|
    
                                                                                
    ------------------|------------------|------------------|------------------|
    ------------------|------------------|------------------|------------------|
    ------------------|------------------|------------------|------------------|
    ------------------|------------------|------------------|------------------|
    ------------------|------------------|------------------|------------------|
    ------------------|------------------|------------------|------------------|
    
                                                                           
    --------------------------2-3-2---|----0-2-3-5-6-5-3-10-8-6-5-8-6-5-3-|
    ------0-1-3-4-3-1-0-1-3-4-------4-|--3--------------------------------|
    --0-2-----------------------------|-----------------------------------|
    ----------------------------------|-----------------------------------|
    ----------------------------------|-----------------------------------|
    ----------------------------------|-----------------------------------|
    
                                                                          
    ----1-3-5-8-6-5-3---3---3---3---3-|--------------------------2-3-2---|
    --4---------------3---1-----------|------0-1-3-4-3-1-0-1-3-4-------4-|
    --------------------------3---2---|--0-2-----------------------------|
    ----------------------------------|----------------------------------|
    ----------------------------------|----------------------------------|
    ----------------------------------|----------------------------------|
    
                                                                               
    ----0-2-3-5-6-5-3-10-8-6-5-8-6-5-3-|--3-5-8-10-13-11-10-8---6---6---6---6-|
    --3--------------------------------|--4-6-8-10-13-11-10-8-6-8-6-8---8---8-|
    -----------------------------------|----------------------7---5---7---5---|
    -----------------------------------|------------------------------8---7---|
    -----------------------------------|--------------------------------------|
    -----------------------------------|--------------------------------------|
    
                                                                                
    ------------------|------------------|------------------|------------------|
    ------------------|------------------|------------------|------------------|
    ------------------|------------------|------------------|------------------|
    ------------------|------------------|------------------|------------------|
    ------------------|------------------|------------------|------------------|
    ------------------|------------------|------------------|------------------|
    
                                                                                
    ------------------|------------------|------------------|------------------|
    ------------------|------------------|------------------|------------------|
    ------------------|------------------|------------------|------------------|
    ------------------|------------------|------------------|------------------|
    ------------------|------------------|------------------|------------------|
    ------------------|------------------|------------------|------------------|
    
                                                        
    --18---17---15--------18----|--17----20------------|
    ----------------15----------|----------------------|
    ----------------------------|----------------------|
    ----------------------------|----------------------|
    ----------------------------|----------------------|
    ----------------------------|----------------------|
    
                                                        
    --22---22---22--20---22---23--|--22----------------|
    ------------------------------|--------------------|
    ------------------------------|--------------------|
    ------------------------------|--------------------|
    ------------------------------|--------------------|
    ------------------------------|--------------------|
    
                                                        
    ----------------------------|--------20------------|
    --23---22-------------23----|--22------------------|
    ------------24--------------|----------------------|
    ----------------24----------|----------------------|
    ----------------------------|----------------------|
    ----------------------------|----------------------|
    
                                                                         
    --22---20---18--17----------|--15----------------|------------------|
    ----------------------18----|--------------------|------------------|
    ----------------------------|--------------------|------------------|
    ----------------------------|--------------------|------------------|
    ----------------------------|--------------------|------------------|
    ----------------------------|--------------------|------------------|
    
                                                                                
    ------------------|------------------|------------------|------------------|
    ------------------|------------------|------------------|------------------|
    ------------------|------------------|------------------|------------------|
    ------------------|------------------|------------------|------------------|
    ------------------|------------------|------------------|------------------|
    ------------------|------------------|------------------|------------------|
    
                                                                                
    ------------------|------------------|------------------|------------------|
    ------------------|------------------|------------------|------------------|
    ------------------|------------------|------------------|------------------|
    ------------------|------------------|------------------|------------------|
    ------------------|------------------|------------------|------------------|
    ------------------|------------------|------------------|------------------|
    
                                                                                
    ------------------|------------------|------------------|------------------|
    ------------------|------------------|------------------|------------------|
    ------------------|------------------|------------------|------------------|
    ------------------|------------------|------------------|------------------|
    ------------------|------------------|------------------|------------------|
    ------------------|------------------|------------------|------------------|
    
                                                                       
    ------------------|------------------|--18---17---15--------18----|
    ------------------|------------------|----------------15----------|
    ------------------|------------------|----------------------------|
    ------------------|------------------|----------------------------|
    ------------------|------------------|----------------------------|
    ------------------|------------------|----------------------------|
    
                                                                               
    --17----20------------|--22---22---22--20---22---23--|--22----------------|
    ----------------------|------------------------------|--------------------|
    ----------------------|------------------------------|--------------------|
    ----------------------|------------------------------|--------------------|
    ----------------------|------------------------------|--------------------|
    ----------------------|------------------------------|--------------------|
    
                                                        
    ----------------------------|--------20------------|
    --23---22-------------23----|--22------------------|
    ------------24--------------|----------------------|
    ----------------24----------|----------------------|
    ----------------------------|----------------------|
    ----------------------------|----------------------|
    
                                                                         
    --22---20---18--17----------|--15----------------|------------------|
    ----------------------18----|--------------------|------------------|
    ----------------------------|--------------------|------------------|
    ----------------------------|--------------------|------------------|
    ----------------------------|--------------------|------------------|
    ----------------------------|--------------------|------------------|
    
                                                                                
    ------------------|------------------|------------------|------------------|
    ------------------|------------------|------------------|------------------|
    ------------------|------------------|------------------|------------------|
    ------------------|------------------|------------------|------------------|
    ------------------|------------------|------------------|------------------|
    ------------------|------------------|------------------|------------------|
    
                                                                                
    ------------------|------------------|------------------|------------------|
    ------------------|------------------|------------------|------------------|
    ------------------|------------------|------------------|------------------|
    ------------------|------------------|------------------|------------------|
    ------------------|------------------|------------------|------------------|
    ------------------|------------------|------------------|------------------|
    
                                                                                
    ------------------|------------------|------------------|------------------|
    ------------------|------------------|------------------|------------------|
    ------------------|------------------|------------------|------------------|
    ------------------|------------------|------------------|------------------|
    ------------------|------------------|------------------|------------------|
    ------------------|------------------|------------------|------------------|
    
                                                                       
    ------------------|------------------|--18---17---15--------18----|
    ------------------|------------------|----------------15----------|
    ------------------|------------------|----------------------------|
    ------------------|------------------|----------------------------|
    ------------------|------------------|----------------------------|
    ------------------|------------------|----------------------------|
    
                                                                             
    
    Узнай ВСЕ о своем друге в ВК или FB
    --17----20------------|--22---22---22--23----22----|--------------------| ----------------------|----------------------------|--23----------------| ----------------------|----------------------------|--------------------| ----------------------|----------------------------|--------------------| ----------------------|----------------------------|--------------------| ----------------------|----------------------------|--------------------| ----------------------------|--------20------------| --23---22-------------23----|--22------------------| ------------24--------------|----------------------| ----------------24----------|----------------------| ----------------------------|----------------------| ----------------------------|----------------------| --22---20---18--17----------|----|------------------|------------------| ----------------------18----|----|------------------|------------------| ----------------------------|----|------------------|------------------| ----------------------------|----|------------------|------------------| ----------------------------|----|------------------|------------------| ----------------------------|----|------------------|------------------| ------------------|------------------|------------------|------------------| ------------------|------------------|------------------|------------------| ------------------|------------------|------------------|------------------| ------------------|------------------|------------------|------------------| ------------------|------------------|------------------|------------------| ------------------|------------------|------------------|------------------| ------------------|------------------|------------------|------------------| ------------------|------------------|------------------|------------------| ------------------|------------------|------------------|------------------| ------------------|------------------|------------------|------------------| ------------------|------------------|------------------|------------------| ------------------|------------------|------------------|------------------| ------------------|------------------|------------------|------------------| ------------------|------------------|------------------|------------------| ------------------|------------------|------------------|------------------| ------------------|------------------|------------------|------------------| ------------------|------------------|------------------|------------------| ------------------|------------------|------------------|------------------| ------------------|------------------|------------------|------------------| ------------------|------------------|------------------|------------------| ------------------|------------------|------------------|------------------| ------------------|------------------|------------------|------------------| ------------------|------------------|------------------|------------------| ------------------|------------------|------------------|------------------| ------------------|------------------|------------------|------------------| ------------------|------------------|------------------|------------------| ------------------|------------------|------------------|------------------| ------------------|------------------|------------------|------------------| ------------------|------------------|------------------|------------------| ------------------|------------------|------------------|------------------| ------------------|------------------|------------------|------------------| ------------------|------------------|------------------|------------------| ------------------|------------------|------------------|------------------| ------------------|------------------|------------------|------------------| ------------------|------------------|------------------|------------------| ------------------|------------------|------------------|------------------| ------------------|---------------------------5-7-8-10-12-13-| ------------------|-----------------------6-8----------------| ------------------|-------------------7-9--------------------| ------------------|--------------9-10------------------------| ------------------|--------10-12-----------------------------| ------------------|--12-13-----------------------------------| --20---19---17--------17----|--15---13-----------------| ----------------17----------|------------13------------| ----------------------------|----------------10--------| ----------------------------|--------------------------| ----------------------------|--------------------------| ----------------------------|--------------------------| ---------7-5-7-8-10-8-10-12-13-12-13-15-17-|--17---15---13------------| -------8-----------------------------------|----------------13--------| --9-10-------------------------------------|--------------------------| -------------------------------------------|--------------------------| -------------------------------------------|--------------------------| -------------------------------------------|--------------------------| ------------------|------------------|------------------|------------------| ------------------|------------------|------------------|------------------| ------------------|------------------|------------------|------------------| ------------------|------------------|------------------|------------------| ------------------|------------------|------------------|------------------| ------------------|------------------|------------------|------------------| ------------------|------------------|------------------|-------------------| ------------------|------------------|------------------|-------------------| ------------------|------------------|------------------|-------------------| ------------------|------------------|------------------|-------------------| ------------------|------------------|------------------|-------------------| ------------------|------------------|------------------|----------3--------| ------------------|------------------|------------------|------------------| ------------------|------------------|------------------|------------------| ------------------|------------------|------------------|------------------| ------------------|------------------|------------------|------------------| ------------------|------------------|------------------|------------------| ------------------|------------------|------------------|------------------| ------------------|------------------|------------------|------------------| ------------------|------------------|------------------|------------------| ------------------|------------------|------------------|------------------| ------------------|------------------|------------------|------------------| ------------------|------------------|------------------|------------------| ------------------|------------------|------------------|------------------| ------------------|------------------|------------------|------------------| ------------------|------------------|------------------|------------------| ------------------|------------------|------------------|------------------| ------------------|------------------|------------------|------------------| ------------------|------------------|------------------|------------------| ------------------|------------------|------------------|------------------| ------------------|------------------|------------------|------------------| ------------------|------------------|------------------|------------------| ------------------|------------------|------------------|------------------| ------------------|------------------|------------------|------------------| ------------------|------------------|------------------|------------------| ------------------|------------------|------------------|------------------| ------------------|------------------|------------------|------------------| ------------------|------------------|------------------|------------------| ------------------|------------------|------------------|------------------| ------------------|------------------|------------------|------------------| ------------------|------------------|------------------|------------------| ------------------|------------------|------------------|------------------| ------------------|------------------|------------------|------------------| ------------------|------------------|------------------|------------------| ------------------|------------------|------------------|------------------| ------------------|------------------|------------------|------------------| ------------------|------------------|------------------|------------------| ------------------|------------------|------------------|------------------| --------------------------2-3-2---|----0-2-3-5-6-5-3-10-8-6-5-8-6-5-3-| ------0-1-3-4-3-1-0-1-3-4-------4-|--3--------------------------------| --0-2-----------------------------|-----------------------------------| ----------------------------------|-----------------------------------| ----------------------------------|-----------------------------------| ----------------------------------|-----------------------------------| ----1-3-5-8-6-5-3---3---3---3---3-|------------------|| --4---------------3---1-----------|------------------|| --------------------------3---2---|------------------|| ----------------------------------|------------------|| ----------------------------------|------------------|| ----------------------------------|------------------||

    поиск лекарств
    список лекарств






    О сайтеАккордыХит-парадПоискУроки ФорумыИщу песню
    ПрограммыСвежачок-сПодпискаСтатьи
    Яндекс.Метрика